  0
SECTION
  2
HEADER
  9
$ACADVER
  1
AC1015
  9
$ACADMAINTVER
 70
    20
  9
$DWGCODEPAGE
  3
ANSI_932
  9
$INSBASE
 10
0.0
 20
0.0
 30
0.0
  9
$EXTMIN
 10
-450.0274637248687
 20
-673.9823081977779
 30
-0.0015258207003583
  9
$EXTMAX
 10
450.0274679158201
 20
664.1680137850426
 30
0.0000000349246037
  9
$LIMMIN
 10
0.0
 20
0.0
  9
$LIMMAX
 10
0.0
 20
0.0
  9
$ORTHOMODE
 70
     0
  9
$REGENMODE
 70
     1
  9
$FILLMODE
 70
     1
  9
$QTEXTMODE
 70
     0
  9
$MIRRTEXT
 70
     1
  9
$LTSCALE
 40
25.4
  9
$ATTMODE
 70
     1
  9
$TEXTSIZE
 40
0.0
  9
$TRACEWID
 40
1.0
  9
$TEXTSTYLE
  7
STANDARD
  9
$CLAYER
  8
DATA
  9
$CELTYPE
  6
ByLayer
  9
$CECOLOR
 62
   256
  9
$CELTSCALE
 40
1.0
  9
$DISPSILH
 70
     0
  9
$DIMSCALE
 40
1.0
  9
$DIMASZ
 40
0.18
  9
$DIMEXO
 40
0.0625
  9
$DIMDLI
 40
0.38
  9
$DIMRND
 40
0.0
  9
$DIMDLE
 40
0.0
  9
$DIMEXE
 40
0.18
  9
$DIMTP
 40
0.0
  9
$DIMTM
 40
0.0
  9
$DIMTXT
 40
0.18
  9
$DIMCEN
 40
0.09
  9
$DIMTSZ
 40
0.0
  9
$DIMTOL
 70
     0
  9
$DIMLIM
 70
     0
  9
$DIMTIH
 70
     1
  9
$DIMTOH
 70
     1
  9
$DIMSE1
 70
     0
  9
$DIMSE2
 70
     0
  9
$DIMTAD
 70
     0
  9
$DIMZIN
 70
     0
  9
$DIMBLK
  1

  9
$DIMASO
 70
     1
  9
$DIMSHO
 70
     1
  9
$DIMPOST
  1

  9
$DIMAPOST
  1

  9
$DIMALT
 70
     0
  9
$DIMALTD
 70
     2
  9
$DIMALTF
 40
25.4
  9
$DIMLFAC
 40
1.0
  9
$DIMTOFL
 70
     0
  9
$DIMTVP
 40
0.0
  9
$DIMTIX
 70
     0
  9
$DIMSOXD
 70
     0
  9
$DIMSAH
 70
     0
  9
$DIMBLK1
  1

  9
$DIMBLK2
  1

  9
$DIMSTYLE
  2
STANDARD
  9
$DIMCLRD
 70
     0
  9
$DIMCLRE
 70
     0
  9
$DIMCLRT
 70
     0
  9
$DIMTFAC
 40
1.0
  9
$DIMGAP
 40
0.09
  9
$DIMJUST
 70
     0
  9
$DIMSD1
 70
     0
  9
$DIMSD2
 70
     0
  9
$DIMTOLJ
 70
     1
  9
$DIMTZIN
 70
     0
  9
$DIMALTZ
 70
     0
  9
$DIMALTTZ
 70
     0
  9
$DIMUPT
 70
     0
  9
$DIMDEC
 70
     4
  9
$DIMTDEC
 70
     4
  9
$DIMALTU
 70
     2
  9
$DIMALTTD
 70
     2
  9
$DIMTXSTY
  7
STANDARD
  9
$DIMAUNIT
 70
     0
  9
$DIMADEC
 70
     0
  9
$DIMALTRND
 40
0.0
  9
$DIMAZIN
 70
     0
  9
$DIMDSEP
 70
    46
  9
$DIMATFIT
 70
     3
  9
$DIMFRAC
 70
     0
  9
$DIMLDRBLK
  1

  9
$DIMLUNIT
 70
     2
  9
$DIMLWD
 70
    -2
  9
$DIMLWE
 70
    -2
  9
$DIMTMOVE
 70
     0
  9
$LUNITS
 70
     2
  9
$LUPREC
 70
     4
  9
$SKETCHINC
 40
0.1
  9
$FILLETRAD
 40
0.0
  9
$AUNITS
 70
     0
  9
$AUPREC
 70
     0
  9
$MENU
  1
acad
  9
$ELEVATION
 40
0.0
  9
$PELEVATION
 40
0.0
  9
$THICKNESS
 40
0.0
  9
$LIMCHECK
 70
     0
  9
$CHAMFERA
 40
0.0
  9
$CHAMFERB
 40
0.0
  9
$CHAMFERC
 40
0.0
  9
$CHAMFERD
 40
0.0
  9
$SKPOLY
 70
     0
  9
$TDCREATE
 40
2457823.432094908
  9
$TDUCREATE
 40
2457823.057094907
  9
$TDUPDATE
 40
2457823.557824074
  9
$TDUUPDATE
 40
2457823.182824074
  9
$TDINDWG
 40
0.0003009259
  9
$TDUSRTIMER
 40
0.0003009259
  9
$USRTIMER
 70
     1
  9
$ANGBASE
 50
0.0
  9
$ANGDIR
 70
     0
  9
$PDMODE
 70
     1
  9
$PDSIZE
 40
-2.0
  9
$PLINEWID
 40
0.0
  9
$SPLFRAME
 70
     0
  9
$SPLINETYPE
 70
     6
  9
$SPLINESEGS
 70
     8
  9
$HANDSEED
  5
9DE
  9
$SURFTAB1
 70
     6
  9
$SURFTAB2
 70
     6
  9
$SURFTYPE
 70
     6
  9
$SURFU
 70
     6
  9
$SURFV
 70
     6
  9
$UCSBASE
  2

  9
$UCSNAME
  2

  9
$UCSORG
 10
0.0
 20
0.0
 30
0.0
  9
$UCSXDIR
 10
1.0
 20
0.0
 30
0.0
  9
$UCSYDIR
 10
0.0
 20
1.0
 30
0.0
  9
$UCSORTHOREF
  2

  9
$UCSORTHOVIEW
 70
     0
  9
$UCSORGTOP
 10
0.0
 20
0.0
 30
0.0
  9
$UCSORGBOTTOM
 10
0.0
 20
0.0
 30
0.0
  9
$UCSORGLEFT
 10
0.0
 20
0.0
 30
0.0
  9
$UCSORGRIGHT
 10
0.0
 20
0.0
 30
0.0
  9
$UCSORGFRONT
 10
0.0
 20
0.0
 30
0.0
  9
$UCSORGBACK
 10
0.0
 20
0.0
 30
0.0
  9
$PUCSBASE
  2

  9
$PUCSNAME
  2

  9
$PUCSORG
 10
0.0
 20
0.0
 30
0.0
  9
$PUCSXDIR
 10
1.0
 20
0.0
 30
0.0
  9
$PUCSYDIR
 10
0.0
 20
1.0
 30
0.0
  9
$PUCSORTHOREF
  2

  9
$PUCSORTHOVIEW
 70
     0
  9
$PUCSORGTOP
 10
0.0
 20
0.0
 30
0.0
  9
$PUCSORGBOTTOM
 10
0.0
 20
0.0
 30
0.0
  9
$PUCSORGLEFT
 10
0.0
 20
0.0
 30
0.0
  9
$PUCSORGRIGHT
 10
0.0
 20
0.0
 30
0.0
  9
$PUCSORGFRONT
 10
0.0
 20
0.0
 30
0.0
  9
$PUCSORGBACK
 10
0.0
 20
0.0
 30
0.0
  9
$USERI1
 70
     0
  9
$USERI2
 70
     0
  9
$USERI3
 70
     0
  9
$USERI4
 70
     0
  9
$USERI5
 70
     0
  9
$USERR1
 40
0.0
  9
$USERR2
 40
0.0
  9
$USERR3
 40
0.0
  9
$USERR4
 40
0.0
  9
$USERR5
 40
0.0
  9
$WORLDVIEW
 70
     1
  9
$SHADEDGE
 70
     3
  9
$SHADEDIF
 70
    70
  9
$TILEMODE
 70
     1
  9
$MAXACTVP
 70
    64
  9
$PINSBASE
 10
0.0
 20
0.0
 30
0.0
  9
$PLIMCHECK
 70
     0
  9
$PEXTMIN
 10
1.000000000000000E+20
 20
1.000000000000000E+20
 30
1.000000000000000E+20
  9
$PEXTMAX
 10
-1.000000000000000E+20
 20
-1.000000000000000E+20
 30
-1.000000000000000E+20
  9
$PLIMMIN
 10
0.0
 20
0.0
  9
$PLIMMAX
 10
12.0
 20
9.0
  9
$UNITMODE
 70
     0
  9
$VISRETAIN
 70
     0
  9
$PLINEGEN
 70
     1
  9
$PSLTSCALE
 70
     0
  9
$TREEDEPTH
 70
  3020
  9
$CMLSTYLE
  2
Standard
  9
$CMLJUST
 70
     0
  9
$CMLSCALE
 40
1.0
  9
$PROXYGRAPHICS
 70
     1
  9
$MEASUREMENT
 70
     0
  9
$CELWEIGHT
370
    -1
  9
$ENDCAPS
280
     0
  9
$JOINSTYLE
280
     0
  9
$LWDISPLAY
290
     0
  9
$INSUNITS
 70
     0
  9
$HYPERLINKBASE
  1

  9
$STYLESHEET
  1

  9
$XEDIT
290
     1
  9
$CEPSNTYPE
380
     0
  9
$PSTYLEMODE
290
     1
  9
$FINGERPRINTGUID
  2
{1231D1D6-7E34-5A4A-9318-BE3041337034}
  9
$VERSIONGUID
  2
{D7CD2562-23AB-BD43-9090-FB1BB832B504}
  9
$EXTNAMES
290
     1
  9
$PSVPSCALE
 40
0.0
  9
$OLESTARTUP
290
     0
  0
ENDSEC
  0
SECTION
  2
CLASSES
  0
CLASS
  1
ACDBDICTIONARYWDFLT
  2
AcDbDictionaryWithDefault
  3
ObjectDBX Classes
 90
        0
280
     0
281
     0
  0
CLASS
  1
MATERIAL
  2
AcDbMaterial
  3
ObjectDBX Classes
 90
     1153
280
     0
281
     0
  0
CLASS
  1
VISUALSTYLE
  2
AcDbVisualStyle
  3
ObjectDBX Classes
 90
     4095
280
     0
281
     0
  0
CLASS
  1
SCALE
  2
AcDbScale
  3
ObjectDBX Classes
 90
     1153
280
     0
281
     0
  0
CLASS
  1
TABLESTYLE
  2
AcDbTableStyle
  3
ObjectDBX Classes
 90
     4095
280
     0
281
     0
  0
CLASS
  1
MLEADERSTYLE
  2
AcDbMLeaderStyle
  3
ACDB_MLEADERSTYLE_CLASS
 90
     4095
280
     0
281
     0
  0
CLASS
  1
ACDBSECTIONVIEWSTYLE
  2
AcDbSectionViewStyle
  3
ObjectDBX Classes
 90
     1025
280
     0
281
     0
  0
CLASS
  1
ACDBDETAILVIEWSTYLE
  2
AcDbDetailViewStyle
  3
ObjectDBX Classes
 90
     1025
280
     0
281
     0
  0
CLASS
  1
DICTIONARYVAR
  2
AcDbDictionaryVar
  3
ObjectDBX Classes
 90
        0
280
     0
281
     0
  0
CLASS
  1
CELLSTYLEMAP
  2
AcDbCellStyleMap
  3
ObjectDBX Classes
 90
     1152
280
     0
281
     0
  0
CLASS
  1
ACDBPLACEHOLDER
  2
AcDbPlaceHolder
  3
ObjectDBX Classes
 90
        0
280
     0
281
     0
  0
CLASS
  1
LAYOUT
  2
AcDbLayout
  3
ObjectDBX Classes
 90
        0
280
     0
281
     0
  0
ENDSEC
  0
SECTION
  2
TABLES
  0
TABLE
  2
VPORT
  5
907
330
0
100
AcDbSymbolTable
 70
     1
  0
VPORT
  5
973
330
907
100
AcDbSymbolTableRecord
100
AcDbViewportTableRecord
  2
*ACTIVE
 70
     0
 10
0.0
 20
0.0
 11
1.0
 21
1.0
 12
0.0000020954757929
 22
-4.907147206367653
 13
0.0
 23
0.0
 14
1.0
 24
1.0
 15
0.0
 25
0.0
 16
0.0
 26
0.0
 36
1.0
 17
0.0
 27
0.0
 37
0.0
 40
1345.598282958606
 41
2.358402971216341
 42
50.0
 43
0.0
 44
0.0
 50
0.0
 51
0.0
 71
     0
 72
  2000
 73
     1
 74
     1
 75
     0
 76
     0
 77
     0
 78
     0
281
     0
 65
     1
110
0.0
120
0.0
130
0.0
111
1.0
121
0.0
131
0.0
112
0.0
122
1.0
132
0.0
 79
     0
146
0.0
1001
ACAD_NAV_VCDISPLAY
1070
     3
  0
ENDTAB
  0
TABLE
  2
LTYPE
  5
904
330
0
100
AcDbSymbolTable
 70
    11
  0
LTYPE
  5
959
330
904
100
AcDbSymbolTableRecord
100
AcDbLinetypeTableRecord
  2
ByBlock
 70
     0
  3

 72
    65
 73
     0
 40
0.0
  0
LTYPE
  5
95A
330
904
100
AcDbSymbolTableRecord
100
AcDbLinetypeTableRecord
  2
ByLayer
 70
     0
  3

 72
    65
 73
     0
 40
0.0
  0
LTYPE
  5
95B
330
904
100
AcDbSymbolTableRecord
100
AcDbLinetypeTableRecord
  2
CONTINUOUS
 70
     0
  3
Solid line
 72
    65
 73
     0
 40
0.0
  0
ENDTAB
  0
TABLE
  2
LAYER
  5
901
330
0
100
AcDbSymbolTable
 70
     6
  0
LAYER
  5
953
102
{ACAD_XDICTIONARY
360
988
102
}
330
901
100
AcDbSymbolTableRecord
100
AcDbLayerTableRecord
  2
0
 70
     0
 62
     7
  6
CONTINUOUS
370
    -3
390
90E
  0
LAYER
  5
972
102
{ACAD_XDICTIONARY
360
98A
102
}
330
901
100
AcDbSymbolTableRecord
100
AcDbLayerTableRecord
  2
DATA
 70
     0
 62
     7
  6
CONTINUOUS
370
    -3
390
90E
  0
LAYER
  5
97E
102
{ACAD_XDICTIONARY
360
98C
102
}
330
901
100
AcDbSymbolTableRecord
100
AcDbLayerTableRecord
  2
HIBINO-BASE
 70
     0
 62
     7
  6
CONTINUOUS
370
    -3
390
90E
  0
LAYER
  5
980
102
{ACAD_XDICTIONARY
360
98E
102
}
330
901
100
AcDbSymbolTableRecord
100
AcDbLayerTableRecord
  2
SPEC
 70
     0
 62
     7
  6
CONTINUOUS
370
    -3
390
90E
  0
LAYER
  5
981
102
{ACAD_XDICTIONARY
360
990
102
}
330
901
100
AcDbSymbolTableRecord
100
AcDbLayerTableRecord
  2
DIMNSIONS
 70
     0
 62
     7
  6
CONTINUOUS
370
    -3
390
90E
  0
ENDTAB
  0
TABLE
  2
STYLE
  5
902
330
0
100
AcDbSymbolTable
 70
     3
  0
STYLE
  5
954
330
902
100
AcDbSymbolTableRecord
100
AcDbTextStyleTableRecord
  2
STANDARD
 70
     0
 40
0.0
 41
1.0
 50
0.0
 71
     0
 42
0.0
  3
txt
  4
BIGFONT.SHX
  0
ENDTAB
  0
TABLE
  2
VIEW
  5
905
330
0
100
AcDbSymbolTable
 70
     0
  0
ENDTAB
  0
TABLE
  2
UCS
  5
906
330
0
100
AcDbSymbolTable
 70
     0
  0
ENDTAB
  0
TABLE
  2
APPID
  5
908
330
0
100
AcDbSymbolTable
 70
     4
  0
APPID
  5
955
330
908
100
AcDbSymbolTableRecord
100
AcDbRegAppTableRecord
  2
ACAD
 70
     0
  0
APPID
  5
95C
330
908
100
AcDbSymbolTableRecord
100
AcDbRegAppTableRecord
  2
AcadAnnotative
 70
     0
  0
APPID
  5
99C
330
908
100
AcDbSymbolTableRecord
100
AcDbRegAppTableRecord
  2
ACAD_NAV_VCDISPLAY
 70
     0
  0
APPID
  5
9D5
330
908
100
AcDbSymbolTableRecord
100
AcDbRegAppTableRecord
  2
ACAD_MLEADERVER
 70
     0
  0
ENDTAB
  0
TABLE
  2
DIMSTYLE
  5
909
330
0
100
AcDbSymbolTable
 70
     2
100
AcDbDimStyleTable
 71
     0
  0
DIMSTYLE
105
956
330
909
100
AcDbSymbolTableRecord
100
AcDbDimStyleTableRecord
  2
STANDARD
 70
     0
279
     2
340
954
  0
ENDTAB
  0
TABLE
  2
BLOCK_RECORD
  5
900
330
0
100
AcDbSymbolTable
 70
     0
  0
BLOCK_RECORD
  5
96E
330
900
100
AcDbSymbolTableRecord
100
AcDbBlockTableRecord
  2
*Model_Space
340
971
  0
BLOCK_RECORD
  5
96A
330
900
100
AcDbSymbolTableRecord
100
AcDbBlockTableRecord
  2
*Paper_Space
340
96D
  0
ENDTAB
  0
ENDSEC
  0
SECTION
  2
BLOCKS
  0
BLOCK
  5
96F
330
96E
100
AcDbEntity
  8
0
100
AcDbBlockBegin
  2
*Model_Space
 70
     0
 10
0.0
 20
0.0
 30
0.0
  3
*Model_Space
  1

  0
ENDBLK
  5
970
330
96E
100
AcDbEntity
  8
0
100
AcDbBlockEnd
  0
BLOCK
  5
96B
330
96A
100
AcDbEntity
 67
     1
  8
0
100
AcDbBlockBegin
  2
*Paper_Space
 70
     0
 10
0.0
 20
0.0
 30
0.0
  3
*Paper_Space
  1

  0
ENDBLK
  5
96C
330
96A
100
AcDbEntity
 67
     1
  8
0
100
AcDbBlockEnd
  0
ENDSEC
  0
SECTION
  2
ENTITIES
  0
LINE
  5
2D
330
96E
100
AcDbEntity
  8
HIBINO-BASE
  6
Continuous
 62
     7
100
AcDbLine
 10
-450.0
 20
664.1272600000002
 30
0.0
 11
450.0
 21
664.1272600000002
 31
0.0
  0
LINE
  5
2E
330
96E
100
AcDbEntity
  8
HIBINO-BASE
  6
Continuous
 62
     7
100
AcDbLine
 10
450.0
 20
-635.87274
 30
0.0
 11
-450.0
 21
-635.87274
 31
0.0
  0
LINE
  5
2F
330
96E
100
AcDbEntity
  8
HIBINO-BASE
  6
Continuous
 62
     7
100
AcDbLine
 10
-450.0
 20
-635.87274
 30
0.0
 11
-450.0
 21
664.1272600000002
 31
0.0
  0
LINE
  5
30
330
96E
100
AcDbEntity
  8
HIBINO-BASE
  6
Continuous
 62
     7
100
AcDbLine
 10
450.0
 20
664.1272600000002
 30
0.0
 11
450.0
 21
-635.87274
 31
0.0
  0
LINE
  5
31
330
96E
100
AcDbEntity
  8
HIBINO-BASE
  6
Continuous
 62
     7
100
AcDbLine
 10
0.0000000000000355
 20
-523.37274
 30
0.0
 11
450.0
 21
-523.37274
 31
0.0
  0
LINE
  5
32
330
96E
100
AcDbEntity
  8
HIBINO-BASE
  6
Continuous
 62
     7
100
AcDbLine
 10
0.0000000000000355
 20
-635.87274
 30
0.0
 11
0.0000000000000355
 21
-523.37274
 31
0.0
  0
TEXT
  5
33
330
96E
100
AcDbEntity
  8
HIBINO-BASE
 62
     7
100
AcDbText
 10
4.500000000000063
 20
-535.9162066666665
 30
0.0
 40
8.144205729166666
  1
NOTE
 41
0.7
 11
4.500000000000063
 21
-527.7720009374998
 31
0.0
100
AcDbText
 73
     3
  0
LINE
  5
34
330
96E
100
AcDbEntity
  8
HIBINO-BASE
  6
Continuous
 62
     7
100
AcDbLine
 10
175.0000000000001
 20
-635.87274
 30
0.0
 11
175.0000000000001
 21
-523.37274
 31
0.0
  0
TEXT
  5
35
330
96E
100
AcDbEntity
  8
HIBINO-BASE
 62
     7
100
AcDbText
 10
179.5
 20
-535.9162066666665
 30
0.0
 40
8.144205729166666
  1
TITLE
 41
0.7
 11
179.5
 21
-527.7720009374998
 31
0.0
100
AcDbText
 73
     3
  0
LINE
  5
36
330
96E
100
AcDbEntity
  8
HIBINO-BASE
  6
Continuous
 62
     7
100
AcDbLine
 10
0.0000000000000355
 20
-585.87274
 30
0.0
 11
450.0
 21
-585.87274
 31
0.0
  0
TEXT
  5
37
330
96E
100
AcDbEntity
  8
HIBINO-BASE
 62
     7
100
AcDbText
 10
242.0
 20
-598.1346066666665
 30
0.0
 40
8.144205729166666
  1
DRAWN
 41
0.7
 11
242.0
 21
-589.9904009374998
 31
0.0
100
AcDbText
 73
     3
  0
TEXT
  5
38
330
96E
100
AcDbEntity
  8
HIBINO-BASE
 62
     7
100
AcDbText
 10
117.0
 20
-598.1346066666665
 30
0.0
 40
8.144205729166666
  1
DATE
 41
0.7
 11
117.0
 21
-589.9904009374998
 31
0.0
100
AcDbText
 73
     3
  0
TEXT
  5
39
330
96E
100
AcDbEntity
  8
HIBINO-BASE
 62
     7
100
AcDbText
 10
67.0
 20
-598.1346066666665
 30
0.0
 40
8.144205729166666
  1
SCALE
 41
0.7
 11
67.0
 21
-589.9904009374998
 31
0.0
100
AcDbText
 73
     3
  0
TEXT
  5
3A
330
96E
100
AcDbEntity
  8
HIBINO-BASE
 62
     7
100
AcDbText
 10
179.5
 20
-598.1346066666665
 30
0.0
 40
8.144205729166666
  1
DESIGN
 41
0.7
 11
179.5
 21
-589.9904009374998
 31
0.0
100
AcDbText
 73
     3
  0
TEXT
  5
3B
330
96E
100
AcDbEntity
  8
HIBINO-BASE
 62
     7
100
AcDbText
 10
367.0
 20
-598.1346066666665
 30
0.0
 40
8.144205729166666
  1
DRAWING NO.
 41
0.7
 11
367.0
 21
-589.9904009374998
 31
0.0
100
AcDbText
 73
     3
  0
TEXT
  5
3C
330
96E
100
AcDbEntity
  8
HIBINO-BASE
 62
     7
100
AcDbText
 10
304.4999999999999
 20
-598.1346066666665
 30
0.0
 40
8.144205729166666
  1
CHECK
 41
0.7
 11
304.4999999999999
 21
-589.9904009374998
 31
0.0
100
AcDbText
 73
     3
  0
LINE
  5
3D
330
96E
100
AcDbEntity
  8
HIBINO-BASE
  6
Continuous
 62
     7
100
AcDbLine
 10
71.87500000000001
 20
-629.62274
 30
0.0
 11
90.62500000000012
 21
-610.87274
 31
0.0
  0
TEXT
  5
3E
330
96E
100
AcDbEntity
  8
HIBINO-BASE
 62
     7
100
AcDbText
 10
68.75000000000001
 20
-616.4174566666668
 30
0.0
 40
8.144205729166666
  1
1
 41
0.7
 11
68.75000000000001
 21
-608.2732509375001
 31
0.0
100
AcDbText
 73
     3
  0
LINE
  5
3F
330
96E
100
AcDbEntity
  8
HIBINO-BASE
  6
Continuous
 62
     7
100
AcDbLine
 10
62.50000000000003
 20
-635.87274
 30
0.0
 11
62.50000000000003
 21
-585.87274
 31
0.0
  0
LINE
  5
40
330
96E
100
AcDbEntity
  8
HIBINO-BASE
  6
Continuous
 62
     7
100
AcDbLine
 10
112.4999999999999
 20
-635.87274
 30
0.0
 11
112.4999999999999
 21
-585.87274
 31
0.0
  0
LINE
  5
41
330
96E
100
AcDbEntity
  8
HIBINO-BASE
  6
Continuous
 62
     7
100
AcDbLine
 10
237.5
 20
-585.87274
 30
0.0
 11
237.5
 21
-635.87274
 31
0.0
  0
LINE
  5
42
330
96E
100
AcDbEntity
  8
HIBINO-BASE
  6
Continuous
 62
     7
100
AcDbLine
 10
362.5
 20
-585.87274
 30
0.0
 11
362.5
 21
-635.87274
 31
0.0
  0
LINE
  5
43
330
96E
100
AcDbEntity
  8
HIBINO-BASE
  6
Continuous
 62
     7
100
AcDbLine
 10
300.0
 20
-635.87274
 30
0.0
 11
300.0
 21
-585.87274
 31
0.0
  0
TEXT
  5
44
330
96E
100
AcDbEntity
  8
HIBINO-BASE
 62
     7
100
AcDbText
 10
116.7827000000001
 20
-621.5545066666664
 30
0.0
 40
8.144205729166666
  1
'17.02.
 41
0.7
 11
116.7827000000001
 21
-613.4103009374999
 31
0.0
100
AcDbText
 73
     3
  0
TEXT
  5
45
330
96E
100
AcDbEntity
  8
HIBINO-BASE
 62
     7
100
AcDbText
 10
87.50000000000005
 20
-625.7924566666668
 30
0.0
 40
8.144205729166666
  1
5
 41
0.7
 11
87.50000000000005
 21
-617.6482509375001
 31
0.0
100
AcDbText
 73
     3
  0
TEXT
  5
46
330
96E
100
AcDbEntity
  8
HIBINO-BASE
 62
     7
100
AcDbText
 10
245.0290500551731
 20
-621.5545066666664
 30
0.0
 40
8.144205729166666
  1
N.Sasaki
 41
0.7
 11
245.0290500551731
 21
-613.4103009374999
 31
0.0
100
AcDbText
 73
     3
  0
TEXT
  5
47
330
96E
100
AcDbEntity
  8
HIBINO-BASE
 62
     7
100
AcDbText
 10
19.4166666666668
 20
-625.99274
 30
0.0
 40
16.28841145833333
  1
A4
 41
0.7
 11
19.4166666666668
 21
-609.7043285416666
 31
0.0
100
AcDbText
 73
     3
  0
TEXT
  5
48
330
96E
100
AcDbEntity
  8
HIBINO-BASE
 62
     7
100
AcDbText
 10
4.791666666666678
 20
-598.9700149999999
 30
0.0
 40
8.144205729166666
  1
PAPER SIZE
 41
0.7
 11
4.791666666666679
 21
-590.8258092708332
 31
0.0
100
AcDbText
 73
     3
  0
TEXT
  5
49
330
96E
100
AcDbEntity
  8
HIBINO-BASE
 62
     7
100
AcDbText
 10
-414.0799999999999
 20
-667.916129
 30
0.0
 40
18.00022089843749
  1
Hibino Corporation
 41
0.7
 11
-414.0799999999999
 21
-649.9159081015625
 31
0.0
100
AcDbText
 73
     3
  0
TEXT
  5
4A
330
96E
100
AcDbEntity
  8
HIBINO-BASE
 62
     7
100
AcDbText
 10
250.34195
 20
-667.916129
 30
0.0
 40
18.00022089843749
  1
ヒビノ株式会社
 41
0.7
 11
250.34195
 21
-649.9159081015625
 31
0.0
100
AcDbText
 73
     3
  0
LINE
  5
4B
330
96E
100
AcDbEntity
  8
SPEC
  6
Continuous
 62
     7
100
AcDbLine
 10
-412.4999999999999
 20
614.1272599999999
 30
0.0
 11
325.0
 21
614.1272599999999
 31
0.0
  0
LINE
  5
4C
330
96E
100
AcDbEntity
  8
SPEC
  6
Continuous
 62
     7
100
AcDbLine
 10
-412.4999999999999
 20
595.3772599999998
 30
0.0
 11
325.0
 21
595.3772599999998
 31
0.0
  0
LINE
  5
4D
330
96E
100
AcDbEntity
  8
SPEC
  6
Continuous
 62
     7
100
AcDbLine
 10
-412.4999999999999
 20
614.1272599999999
 30
0.0
 11
-412.4999999999999
 21
351.6272599999999
 31
0.0
  0
TEXT
  5
4E
330
96E
100
AcDbEntity
  8
SPEC
 62
     7
100
AcDbText
 10
-406.2499999999999
 20
621.0936099999997
 30
0.0
 40
12.21630859375
  1
仕様
 41
0.7
 11
-406.2499999999999
 21
633.3099185937498
 31
0.0
100
AcDbText
 73
     3
  0
LINE
  5
4F
330
96E
100
AcDbEntity
  8
SPEC
  6
Continuous
 62
     7
100
AcDbLine
 10
-200.0
 20
614.1272599999999
 30
0.0
 11
-200.0
 21
351.6272599999999
 31
0.0
  0
LINE
  5
50
330
96E
100
AcDbEntity
  8
SPEC
  6
Continuous
 62
     7
100
AcDbLine
 10
325.0
 20
614.1272599999999
 30
0.0
 11
325.0
 21
351.6272599999999
 31
0.0
  0
LINE
  5
51
330
96E
100
AcDbEntity
  8
SPEC
  6
Continuous
 62
     7
100
AcDbLine
 10
-412.4999999999999
 20
576.6272599999998
 30
0.0
 11
325.0
 21
576.6272599999998
 31
0.0
  0
LINE
  5
52
330
96E
100
AcDbEntity
  8
SPEC
  6
Continuous
 62
     7
100
AcDbLine
 10
-412.4999999999999
 20
557.8772599999999
 30
0.0
 11
325.0
 21
557.8772599999999
 31
0.0
  0
LINE
  5
53
330
96E
100
AcDbEntity
  8
SPEC
  6
Continuous
 62
     7
100
AcDbLine
 10
-412.4999999999999
 20
539.1272599999999
 30
0.0
 11
325.0
 21
539.1272599999999
 31
0.0
  0
LINE
  5
54
330
96E
100
AcDbEntity
  8
SPEC
  6
Continuous
 62
     7
100
AcDbLine
 10
-412.4999999999999
 20
520.3772599999999
 30
0.0
 11
325.0
 21
520.3772599999999
 31
0.0
  0
LINE
  5
55
330
96E
100
AcDbEntity
  8
SPEC
  6
Continuous
 62
     7
100
AcDbLine
 10
-412.4999999999999
 20
501.6272599999999
 30
0.0
 11
325.0
 21
501.6272599999999
 31
0.0
  0
TEXT
  5
56
330
96E
100
AcDbEntity
  8
SPEC
 62
     7
100
AcDbText
 10
-195.5
 20
580.5668488888886
 30
0.0
 40
9.501573350694446
  1
160°
 41
0.7
 11
-195.5
 21
590.0684222395831
 31
0.0
100
AcDbText
 73
     3
  0
TEXT
  5
57
330
96E
100
AcDbEntity
  8
SPEC
 62
     7
100
AcDbText
 10
-408.0
 20
599.3168488888886
 30
0.0
 40
9.501573350694446
  1
周波数レンジ(-10dB)
 41
0.7
 11
-408.0
 21
608.8184222395831
 31
0.0
100
AcDbText
 73
     3
  0
TEXT
  5
58
330
96E
100
AcDbEntity
  8
SPEC
 62
     7
100
AcDbText
 10
-195.5
 20
599.3168488888886
 30
0.0
 40
9.501573350694446
  1
140Hz～20kHz
 41
0.7
 11
-195.5
 21
608.8184222395831
 31
0.0
100
AcDbText
 73
     3
  0
TEXT
  5
59
330
96E
100
AcDbEntity
  8
SPEC
 62
     7
100
AcDbText
 10
-408.0
 20
486.8168488888886
 30
0.0
 40
9.501573350694446
  1
ドライバー構成
 41
0.7
 11
-408.0
 21
496.3184222395831
 31
0.0
100
AcDbText
 73
     3
  0
TEXT
  5
5A
330
96E
100
AcDbEntity
  8
SPEC
 62
     7
100
AcDbText
 10
-195.5
 20
486.8168488888886
 30
0.0
 40
9.501573350694446
  1
2.5インチ(64mm)
 41
0.7
 11
-195.5
 21
496.3184222395831
 31
0.0
100
AcDbText
 73
     3
  0
TEXT
  5
5B
330
96E
100
AcDbEntity
  8
SPEC
 62
     7
100
AcDbText
 10
-408.0
 20
543.0668488888886
 30
0.0
 40
9.501573350694446
  1
感度(1W、1m)
 41
0.7
 11
-408.0
 21
552.5684222395831
 31
0.0
100
AcDbText
 73
     3
  0
TEXT
  5
5C
330
96E
100
AcDbEntity
  8
SPEC
 62
     7
100
AcDbText
 10
-195.5
 20
543.0668488888886
 30
0.0
 40
9.501573350694446
  1
82dB SPL
 41
0.7
 11
-195.5
 21
552.5684222395831
 31
0.0
100
AcDbText
 73
     3
  0
TEXT
  5
5D
330
96E
100
AcDbEntity
  8
SPEC
 62
     7
100
AcDbText
 10
-408.0
 20
561.9217455460304
 30
0.0
 40
9.277347640441151
  1
最大音圧レベル
 41
0.7
 11
-408.0
 21
571.1990931864716
 31
0.0
100
AcDbText
 73
     3
  0
TEXT
  5
5E
330
96E
100
AcDbEntity
  8
SPEC
 62
     7
100
AcDbText
 10
-195.5
 20
561.8168488888888
 30
0.0
 40
9.501573350694446
  1
94dB SPL
 41
0.7
 11
-195.5
 21
571.3184222395832
 31
0.0
100
AcDbText
 73
     3
  0
TEXT
  5
5F
330
96E
100
AcDbEntity
  8
SPEC
 62
     7
100
AcDbText
 10
-408.0
 20
505.5668488888886
 30
0.0
 40
9.501573350694446
  1
許容入力(プログラム/ピンク)※
 41
0.7
 11
-408.0
 21
515.0684222395831
 31
0.0
100
AcDbText
 73
     3
  0
TEXT
  5
60
330
96E
100
AcDbEntity
  8
SPEC
 62
     7
100
AcDbText
 10
-195.5
 20
505.5668488888886
 30
0.0
 40
9.501573350694446
  1
30W/15W
 41
0.7
 11
-195.5
 21
515.0684222395831
 31
0.0
100
AcDbText
 73
     3
  0
TEXT
  5
61
330
96E
100
AcDbEntity
  8
SPEC
 62
     7
100
AcDbText
 10
-408.0
 20
524.3168488888885
 30
0.0
 40
9.501573350694446
  1
公称インピーダンス
 41
0.7
 11
-408.0
 21
533.818422239583
 31
0.0
100
AcDbText
 73
     3
  0
TEXT
  5
62
330
96E
100
AcDbEntity
  8
SPEC
 62
     7
100
AcDbText
 10
-195.5
 20
524.3168488888885
 30
0.0
 40
9.501573350694446
  1
16Ω
 41
0.7
 11
-195.5
 21
533.818422239583
 31
0.0
100
AcDbText
 73
     3
  0
LINE
  5
63
330
96E
100
AcDbEntity
  8
SPEC
  6
Continuous
 62
     7
100
AcDbLine
 10
-412.4999999999999
 20
482.8772599999999
 30
0.0
 11
325.0
 21
482.8772599999999
 31
0.0
  0
TEXT
  5
64
330
96E
100
AcDbEntity
  8
SPEC
 62
     7
100
AcDbText
 10
-408.0
 20
468.0668488888886
 30
0.0
 40
9.501573350694446
  1
端子(入力/ループスルー)
 41
0.7
 11
-408.0
 21
477.5684222395831
 31
0.0
100
AcDbText
 73
     3
  0
TEXT
  5
65
330
96E
100
AcDbEntity
  8
SPEC
 62
     7
100
AcDbText
 10
-195.5
 20
468.0668488888886
 30
0.0
 40
9.501573350694446
  1
ユーロブロック
 41
0.7
 11
-195.5
 21
477.5684222395831
 31
0.0
100
AcDbText
 73
     3
  0
LINE
  5
66
330
96E
100
AcDbEntity
  8
SPEC
  6
Continuous
 62
     7
100
AcDbLine
 10
-412.4999999999999
 20
464.1272599999999
 30
0.0
 11
325.0
 21
464.1272599999999
 31
0.0
  0
TEXT
  5
67
330
96E
100
AcDbEntity
  8
SPEC
 62
     7
100
AcDbText
 10
-408.0
 20
449.3168488888886
 30
0.0
 40
9.501573350694446
  1
色
 41
0.7
 11
-408.0
 21
458.8184222395831
 31
0.0
100
AcDbText
 73
     3
  0
TEXT
  5
68
330
96E
100
AcDbEntity
  8
SPEC
 62
     7
100
AcDbText
 10
-195.5
 20
449.3168488888886
 30
0.0
 40
9.501573350694446
  1
白
 41
0.7
 11
-195.5
 21
458.8184222395831
 31
0.0
100
AcDbText
 73
     3
  0
LINE
  5
69
330
96E
100
AcDbEntity
  8
SPEC
  6
Continuous
 62
     7
100
AcDbLine
 10
-412.4999999999999
 20
445.3772599999999
 30
0.0
 11
325.0
 21
445.3772599999999
 31
0.0
  0
LINE
  5
6A
330
96E
100
AcDbEntity
  8
SPEC
  6
Continuous
 62
     7
100
AcDbLine
 10
-412.4999999999999
 20
351.6272599999999
 30
0.0
 11
325.0
 21
351.6272599999999
 31
0.0
  0
LINE
  5
6B
330
96E
100
AcDbEntity
  8
SPEC
  6
Continuous
 62
     7
100
AcDbLine
 10
-412.4999999999999
 20
426.6272599999998
 30
0.0
 11
325.0
 21
426.6272599999998
 31
0.0
  0
LINE
  5
6C
330
96E
100
AcDbEntity
  8
SPEC
  6
Continuous
 62
     7
100
AcDbLine
 10
-412.4999999999999
 20
407.8772599999998
 30
0.0
 11
325.0
 21
407.8772599999998
 31
0.0
  0
LINE
  5
6D
330
96E
100
AcDbEntity
  8
SPEC
  6
Continuous
 62
     7
100
AcDbLine
 10
-412.4999999999999
 20
389.1272599999999
 30
0.0
 11
325.0
 21
389.1272599999999
 31
0.0
  0
LINE
  5
6E
330
96E
100
AcDbEntity
  8
SPEC
  6
Continuous
 62
     7
100
AcDbLine
 10
-412.4999999999999
 20
370.3772599999999
 30
0.0
 11
325.0
 21
370.3772599999999
 31
0.0
  0
TEXT
  5
6F
330
96E
100
AcDbEntity
  8
SPEC
 62
     7
100
AcDbText
 10
-408.0
 20
430.5668488888886
 30
0.0
 40
9.501573350694446
  1
寸法(φ×H)
 41
0.7
 11
-408.0
 21
440.0684222395831
 31
0.0
100
AcDbText
 73
     3
  0
TEXT
  5
70
330
96E
100
AcDbEntity
  8
SPEC
 62
     7
100
AcDbText
 10
-408.0
 20
411.8168488888886
 30
0.0
 40
9.501573350694446
  1
開口寸法
 41
0.7
 11
-408.0
 21
421.3184222395831
 31
0.0
100
AcDbText
 73
     3
  0
TEXT
  5
71
330
96E
100
AcDbEntity
  8
SPEC
 62
     7
100
AcDbText
 10
-408.0
 20
393.0668488888887
 30
0.0
 40
9.501573350694446
  1
取付可能板厚
 41
0.7
 11
-408.0
 21
402.5684222395831
 31
0.0
100
AcDbText
 73
     3
  0
TEXT
  5
72
330
96E
100
AcDbEntity
  8
SPEC
 62
     7
100
AcDbText
 10
-195.5
 20
430.5668488888886
 30
0.0
 40
9.501573350694446
  1
127×116mm
 41
0.7
 11
-195.5
 21
440.0684222395831
 31
0.0
100
AcDbText
 73
     3
  0
TEXT
  5
73
330
96E
100
AcDbEntity
  8
SPEC
 62
     7
100
AcDbText
 10
-195.5
 20
411.8168488888886
 30
0.0
 40
9.501573350694446
  1
103mm
 41
0.7
 11
-195.5
 21
421.3184222395831
 31
0.0
100
AcDbText
 73
     3
  0
TEXT
  5
74
330
96E
100
AcDbEntity
  8
SPEC
 62
     7
100
AcDbText
 10
-408.0
 20
374.3168488888887
 30
0.0
 40
9.501573350694446
  1
質量
 41
0.7
 11
-408.0
 21
383.8184222395831
 31
0.0
100
AcDbText
 73
     3
  0
TEXT
  5
75
330
96E
100
AcDbEntity
  8
SPEC
 62
     7
100
AcDbText
 10
-195.5
 20
374.3168488888887
 30
0.0
 40
9.501573350694446
  1
0.9kg
 41
0.7
 11
-195.5
 21
383.8184222395831
 31
0.0
100
AcDbText
 73
     3
  0
TEXT
  5
76
330
96E
100
AcDbEntity
  8
SPEC
 62
     7
100
AcDbText
 10
-408.0
 20
355.5668488888887
 30
0.0
 40
9.501573350694446
  1
付属品
 41
0.7
 11
-408.0
 21
365.0684222395832
 31
0.0
100
AcDbText
 73
     3
  0
TEXT
  5
77
330
96E
100
AcDbEntity
  8
SPEC
 62
     7
100
AcDbText
 10
-195.5
 20
355.5668488888887
 30
0.0
 40
9.501573350694446
  1
C型 サポート金具×2、塗装用シールド×2、開口テンプレート×2、和文取扱説明書
 41
0.7
 11
-195.5
 21
365.0684222395832
 31
0.0
100
AcDbText
 73
     3
  0
TEXT
  5
78
330
96E
100
AcDbEntity
  8
SPEC
 62
     7
100
AcDbText
 10
-408.0
 20
580.5668488888886
 30
0.0
 40
9.501573350694446
  1
カバレージ角(1～16kHz平均)
 41
0.7
 11
-408.0
 21
590.0684222395831
 31
0.0
100
AcDbText
 73
     3
  0
TEXT
  5
79
330
96E
100
AcDbEntity
  8
SPEC
 62
     7
100
AcDbText
 10
-195.5
 20
393.0668488888887
 30
0.0
 40
9.501573350694446
  1
5～28mm
 41
0.7
 11
-195.5
 21
402.5684222395831
 31
0.0
100
AcDbText
 73
     3
  0
TEXT
  5
7A
330
96E
100
AcDbEntity
  8
SPEC
 62
     7
100
AcDbText
 10
-400.0
 20
333.0550000000001
 30
0.0
 40
9.501573350694446
  1
※100時間、ピンクノイズ:IEC/クレストファクター6dB
 41
0.7
 11
-400.0
 21
342.5565733506945
 31
0.0
100
AcDbText
 73
     3
  0
TEXT
  5
7B
330
96E
100
AcDbEntity
  8
DIMNSIONS
 62
     7
100
AcDbText
 10
-99.99999999999996
 20
-574.5252899999999
 30
0.0
 40
12.21630859375
  1
(単位：mm)
 41
0.7
 11
-99.99999999999996
 21
-562.3089814062499
 31
0.0
100
AcDbText
 73
     3
  0
LINE
  5
7C
330
96E
100
AcDbEntity
  8
DIMNSIONS
  6
Continuous
 62
     7
100
AcDbLine
 10
-275.0138754597771
 20
-408.3657094061464
 30
0.0
 11
-287.5
 21
-437.5
 31
0.0
  0
LINE
  5
7D
330
96E
100
AcDbEntity
  8
DIMNSIONS
  6
Continuous
 62
     7
100
AcDbLine
 10
-275.0138754597771
 20
-408.3657094061464
 30
0.0
 11
-276.815356413792
 21
-421.1839124417962
 31
0.0
  0
LINE
  5
7E
330
96E
100
AcDbEntity
  8
DIMNSIONS
  6
Continuous
 62
     7
100
AcDbLine
 10
-275.0138754597771
 20
-408.3657094061464
 30
0.0
 11
-282.9831052482128
 21
-418.5658583888785
 31
0.0
  0
LINE
  5
7F
330
96E
100
AcDbEntity
  8
DIMNSIONS
  6
Continuous
 62
     7
100
AcDbLine
 10
-287.5
 20
-437.5
 30
0.0
 11
-277.5
 21
-437.5
 31
0.0
  0
TEXT
  5
80
330
96E
100
AcDbEntity
  8
DIMNSIONS
 62
     7
100
AcDbText
 10
-277.5
 20
-443.8499999999999
 30
0.0
 40
13.57367621527778
  1
φ127
 41
0.7
 11
-277.5
 21
-430.2763237847222
 31
0.0
100
AcDbText
 73
     3
  0
LINE
  5
81
330
96E
100
AcDbEntity
  8
DIMNSIONS
  6
Continuous
 62
     7
100
AcDbLine
 10
-146.893114157237
 20
-423.4996850385887
 30
0.0
 11
-146.893114157237
 21
-447.5
 31
0.0
  0
LINE
  5
82
330
96E
100
AcDbEntity
  8
DIMNSIONS
  6
Continuous
 62
     7
100
AcDbLine
 10
-39.89311415723705
 20
-334.5568604746564
 30
0.0
 11
-39.89311415723705
 21
-447.5
 31
0.0
  0
LINE
  5
83
330
96E
100
AcDbEntity
  8
DIMNSIONS
  6
Continuous
 62
     7
100
AcDbLine
 10
-146.893114157237
 20
-437.5
 30
0.0
 11
-39.89311415723705
 21
-437.5
 31
0.0
  0
LINE
  5
84
330
96E
100
AcDbEntity
  8
DIMNSIONS
  6
Continuous
 62
     7
100
AcDbLine
 10
-146.893114157237
 20
-437.5
 30
0.0
 11
-134.3900013642683
 21
-434.1498010242488
 31
0.0
  0
LINE
  5
85
330
96E
100
AcDbEntity
  8
DIMNSIONS
  6
Continuous
 62
     7
100
AcDbLine
 10
-146.893114157237
 20
-437.5
 30
0.0
 11
-134.3900013642683
 21
-440.8501989757511
 31
0.0
  0
LINE
  5
86
330
96E
100
AcDbEntity
  8
DIMNSIONS
  6
Continuous
 62
     7
100
AcDbLine
 10
-39.89311415723705
 20
-437.5
 30
0.0
 11
-52.39622695020579
 21
-440.8501989757511
 31
0.0
  0
LINE
  5
87
330
96E
100
AcDbEntity
  8
DIMNSIONS
  6
Continuous
 62
     7
100
AcDbLine
 10
-39.89311415723705
 20
-437.5
 30
0.0
 11
-52.39622695020579
 21
-434.1498010242488
 31
0.0
  0
TEXT
  5
88
330
96E
100
AcDbEntity
  8
DIMNSIONS
 62
     7
100
AcDbText
 10
-109.7291666666666
 20
-432.5305555555555
 30
0.0
 40
13.57367621527778
  1
107
 41
0.7
 11
-109.7291666666666
 21
-418.9568793402777
 31
0.0
100
AcDbText
 73
     3
  0
LINE
  5
89
330
96E
100
AcDbEntity
  8
DIMNSIONS
  6
Continuous
 62
     7
100
AcDbLine
 10
-285.7088924499198
 20
-10.70889244991917
 30
0.0
 11
-214.2911075500788
 21
60.70889244992085
 31
0.0
  0
LINE
  5
8A
330
96E
100
AcDbEntity
  8
DIMNSIONS
  6
Continuous
 62
     7
100
AcDbLine
 10
-285.7088924499198
 20
-10.70889244991917
 30
0.0
 11
-279.0421495510228
 21
0.3864309708211717
 31
0.0
  0
LINE
  5
8B
330
96E
100
AcDbEntity
  8
DIMNSIONS
  6
Continuous
 62
     7
100
AcDbLine
 10
-285.7088924499198
 20
-10.70889244991917
 30
0.0
 11
-274.3876620286053
 21
-4.433431953802094
 31
0.0
  0
LINE
  5
8C
330
96E
100
AcDbEntity
  8
DIMNSIONS
  6
Continuous
 62
     7
100
AcDbLine
 10
-214.2911075500788
 20
60.70889244992085
 30
0.0
 11
-220.7631949778494
 21
49.49890819399446
 31
0.0
  0
LINE
  5
8D
330
96E
100
AcDbEntity
  8
DIMNSIONS
  6
Continuous
 62
     7
100
AcDbLine
 10
-214.2911075500788
 20
60.70889244992085
 30
0.0
 11
-225.5010918060053
 21
54.23680502215028
 31
0.0
  0
TEXT
  5
8E
330
96E
100
AcDbEntity
  8
DIMNSIONS
 62
     7
100
AcDbText
 10
-269.1046502978076
 20
12.92320543298572
 30
0.0
 40
13.57367621527778
  1
φ101
 50
44.99999999999961
 41
0.7
 11
-278.702688795261
 21
22.52124393043925
 31
0.0
100
AcDbText
 73
     3
  0
LINE
  5
8F
330
96E
100
AcDbEntity
  8
DIMNSIONS
  6
Continuous
 62
     7
100
AcDbLine
 10
56.80204563037917
 20
-395.0381064708847
 30
0.0
 11
75.0
 21
-437.5
 31
0.0
  0
LINE
  5
90
330
96E
100
AcDbEntity
  8
DIMNSIONS
  6
Continuous
 62
     7
100
AcDbLine
 10
56.80204563037917
 20
-395.0381064708847
 30
0.0
 11
64.94807881228578
 21
-405.0976196842612
 31
0.0
  0
LINE
  5
91
330
96E
100
AcDbEntity
  8
DIMNSIONS
  6
Continuous
 62
     7
100
AcDbLine
 10
56.80204563037917
 20
-395.0381064708847
 30
0.0
 11
58.82696069929297
 21
-407.8229170543272
 31
0.0
  0
LINE
  5
92
330
96E
100
AcDbEntity
  8
DIMNSIONS
  6
Continuous
 62
     7
100
AcDbLine
 10
75.0
 20
-437.5
 30
0.0
 11
65.0
 21
-437.5
 31
0.0
  0
TEXT
  5
93
330
96E
100
AcDbEntity
  8
DIMNSIONS
 62
     7
100
AcDbText
 10
12.08333333333334
 20
-443.8499999999999
 30
0.0
 40
13.57367621527778
  1
φ98.0
 41
0.7
 11
12.08333333333334
 21
-430.2763237847222
 31
0.0
100
AcDbText
 73
     3
  0
LINE
  5
94
330
96E
100
AcDbEntity
  8
DIMNSIONS
  6
Continuous
 62
     7
100
AcDbLine
 10
-322.0
 20
0.0000000000002274
 30
0.0
 11
-322.0
 21
-72.5
 31
0.0
  0
LINE
  5
95
330
96E
100
AcDbEntity
  8
DIMNSIONS
  6
Continuous
 62
     7
100
AcDbLine
 10
-178.0
 20
0.0000000000002274
 30
0.0
 11
-178.0
 21
-72.5
 31
0.0
  0
LINE
  5
96
330
96E
100
AcDbEntity
  8
DIMNSIONS
  6
Continuous
 62
     7
100
AcDbLine
 10
-322.0
 20
-62.5
 30
0.0
 11
-178.0
 21
-62.5
 31
0.0
  0
LINE
  5
97
330
96E
100
AcDbEntity
  8
DIMNSIONS
  6
Continuous
 62
     7
100
AcDbLine
 10
-322.0
 20
-62.5
 30
0.0
 11
-309.4968872070313
 21
-59.14980102424879
 31
0.0
  0
LINE
  5
98
330
96E
100
AcDbEntity
  8
DIMNSIONS
  6
Continuous
 62
     7
100
AcDbLine
 10
-322.0
 20
-62.5
 30
0.0
 11
-309.4968872070313
 21
-65.85019897575121
 31
0.0
  0
LINE
  5
99
330
96E
100
AcDbEntity
  8
DIMNSIONS
  6
Continuous
 62
     7
100
AcDbLine
 10
-178.0
 20
-62.5
 30
0.0
 11
-190.5031127929687
 21
-65.85019897575121
 31
0.0
  0
LINE
  5
9A
330
96E
100
AcDbEntity
  8
DIMNSIONS
  6
Continuous
 62
     7
100
AcDbLine
 10
-178.0
 20
-62.5
 30
0.0
 11
-190.5031127929687
 21
-59.14980102424878
 31
0.0
  0
TEXT
  5
9B
330
96E
100
AcDbEntity
  8
DIMNSIONS
 62
     7
100
AcDbText
 10
-263.2291666666668
 20
-57.53055555555556
 30
0.0
 40
13.57367621527778
  1
144
 41
0.7
 11
-263.2291666666668
 21
-43.95687934027778
 31
0.0
100
AcDbText
 73
     3
  0
LINE
  5
9C
330
96E
100
AcDbEntity
  8
DIMNSIONS
  6
Continuous
 62
     7
100
AcDbLine
 10
-260.0
 20
-37.99999999999978
 30
0.0
 11
-347.5
 21
-37.99999999999978
 31
0.0
  0
LINE
  5
9D
330
96E
100
AcDbEntity
  8
DIMNSIONS
  6
Continuous
 62
     7
100
AcDbLine
 10
-260.0
 20
88.00000000000022
 30
0.0
 11
-347.5
 21
88.00000000000022
 31
0.0
  0
LINE
  5
9E
330
96E
100
AcDbEntity
  8
DIMNSIONS
  6
Continuous
 62
     7
100
AcDbLine
 10
-337.5
 20
-37.99999999999978
 30
0.0
 11
-337.5
 21
88.00000000000022
 31
0.0
  0
LINE
  5
9F
330
96E
100
AcDbEntity
  8
DIMNSIONS
  6
Continuous
 62
     7
100
AcDbLine
 10
-337.5
 20
-37.99999999999978
 30
0.0
 11
-340.8501989757512
 21
-25.49688720703102
 31
0.0
  0
LINE
  5
A0
330
96E
100
AcDbEntity
  8
DIMNSIONS
  6
Continuous
 62
     7
100
AcDbLine
 10
-337.5
 20
-37.99999999999978
 30
0.0
 11
-334.1498010242488
 21
-25.49688720703102
 31
0.0
  0
LINE
  5
A1
330
96E
100
AcDbEntity
  8
DIMNSIONS
  6
Continuous
 62
     7
100
AcDbLine
 10
-337.5
 20
88.00000000000022
 30
0.0
 11
-334.1498010242488
 21
75.49688720703146
 31
0.0
  0
LINE
  5
A2
330
96E
100
AcDbEntity
  8
DIMNSIONS
  6
Continuous
 62
     7
100
AcDbLine
 10
-337.5
 20
88.00000000000022
 30
0.0
 11
-340.8501989757512
 21
75.49688720703146
 31
0.0
  0
TEXT
  5
A3
330
96E
100
AcDbEntity
  8
DIMNSIONS
 62
     7
100
AcDbText
 10
-342.4694444444444
 20
11.77083333333356
 30
0.0
 40
13.57367621527778
  1
126
 50
90.0
 41
0.7
 11
-356.0431206597222
 21
11.77083333333356
 31
0.0
100
AcDbText
 73
     3
  0
LINE
  5
A4
330
96E
100
AcDbEntity
  8
DIMNSIONS
  6
Continuous
 62
     7
100
AcDbLine
 10
-128.0
 20
0.0000000000002274
 30
0.0
 11
-128.0
 21
-85.0
 31
0.0
  0
LINE
  5
A5
330
96E
100
AcDbEntity
  8
DIMNSIONS
  6
Continuous
 62
     7
100
AcDbLine
 10
-100.0
 20
-47.99999999999977
 30
0.0
 11
-100.0
 21
-85.0
 31
0.0
  0
LINE
  5
A6
330
96E
100
AcDbEntity
  8
DIMNSIONS
  6
Continuous
 62
     7
100
AcDbLine
 10
-100.0
 20
-75.0
 30
0.0
 11
-128.0
 21
-75.0
 31
0.0
  0
LINE
  5
A7
330
96E
100
AcDbEntity
  8
DIMNSIONS
  6
Continuous
 62
     7
100
AcDbLine
 10
-128.0
 20
-75.0
 30
0.0
 11
-145.5
 21
-75.0
 31
0.0
  0
LINE
  5
A8
330
96E
100
AcDbEntity
  8
DIMNSIONS
  6
Continuous
 62
     7
100
AcDbLine
 10
-128.0
 20
-75.0
 30
0.0
 11
-140.5031127929688
 21
-78.35019897575121
 31
0.0
  0
LINE
  5
A9
330
96E
100
AcDbEntity
  8
DIMNSIONS
  6
Continuous
 62
     7
100
AcDbLine
 10
-128.0
 20
-75.0
 30
0.0
 11
-140.5031127929688
 21
-71.6498010242488
 31
0.0
  0
LINE
  5
AA
330
96E
100
AcDbEntity
  8
DIMNSIONS
  6
Continuous
 62
     7
100
AcDbLine
 10
-100.0
 20
-75.0
 30
0.0
 11
-52.22222222222222
 21
-75.0
 31
0.0
  0
LINE
  5
AB
330
96E
100
AcDbEntity
  8
DIMNSIONS
  6
Continuous
 62
     7
100
AcDbLine
 10
-100.0
 20
-75.0
 30
0.0
 11
-87.49688720703124
 21
-71.6498010242488
 31
0.0
  0
LINE
  5
AC
330
96E
100
AcDbEntity
  8
DIMNSIONS
  6
Continuous
 62
     7
100
AcDbLine
 10
-100.0
 20
-75.0
 30
0.0
 11
-87.49688720703124
 21
-78.35019897575121
 31
0.0
  0
TEXT
  5
AD
330
96E
100
AcDbEntity
  8
DIMNSIONS
 62
     7
100
AcDbText
 10
-87.5
 20
-70.03055555555556
 30
0.0
 40
13.57367621527778
  1
28.0
 41
0.7
 11
-87.5
 21
-56.45687934027778
 31
0.0
100
AcDbText
 73
     3
  0
LINE
  5
AE
330
96E
100
AcDbEntity
  8
DIMNSIONS
  6
Continuous
 62
     7
100
AcDbLine
 10
-101.0
 20
-47.99999999999977
 30
0.0
 11
-101.0
 21
-60.0
 31
0.0
  0
LINE
  5
AF
330
96E
100
AcDbEntity
  8
DIMNSIONS
  6
Continuous
 62
     7
100
AcDbLine
 10
-100.0
 20
-47.99999999999977
 30
0.0
 11
-100.0
 21
-60.0
 31
0.0
  0
LINE
  5
B0
330
96E
100
AcDbEntity
  8
DIMNSIONS
  6
Continuous
 62
     7
100
AcDbLine
 10
-100.0
 20
-50.0
 30
0.0
 11
-101.0
 21
-50.0
 31
0.0
  0
LINE
  5
B1
330
96E
100
AcDbEntity
  8
DIMNSIONS
  6
Continuous
 62
     7
100
AcDbLine
 10
-101.0
 20
-50.0
 30
0.0
 11
-118.5
 21
-50.0
 31
0.0
  0
LINE
  5
B2
330
96E
100
AcDbEntity
  8
DIMNSIONS
  6
Continuous
 62
     7
100
AcDbLine
 10
-101.0
 20
-50.0
 30
0.0
 11
-113.5031127929687
 21
-53.35019897575122
 31
0.0
  0
LINE
  5
B3
330
96E
100
AcDbEntity
  8
DIMNSIONS
  6
Continuous
 62
     7
100
AcDbLine
 10
-101.0
 20
-50.0
 30
0.0
 11
-113.5031127929687
 21
-46.64980102424878
 31
0.0
  0
LINE
  5
B4
330
96E
100
AcDbEntity
  8
DIMNSIONS
  6
Continuous
 62
     7
100
AcDbLine
 10
-100.0
 20
-50.0
 30
0.0
 11
-61.04166666666666
 21
-50.0
 31
0.0
  0
LINE
  5
B5
330
96E
100
AcDbEntity
  8
DIMNSIONS
  6
Continuous
 62
     7
100
AcDbLine
 10
-100.0
 20
-50.0
 30
0.0
 11
-87.49688720703124
 21
-46.64980102424879
 31
0.0
  0
LINE
  5
B6
330
96E
100
AcDbEntity
  8
DIMNSIONS
  6
Continuous
 62
     7
100
AcDbLine
 10
-100.0
 20
-50.0
 30
0.0
 11
-87.49688720703124
 21
-53.35019897575121
 31
0.0
  0
TEXT
  5
B7
330
96E
100
AcDbEntity
  8
DIMNSIONS
 62
     7
100
AcDbText
 10
-87.5
 20
-45.03055555555555
 30
0.0
 40
13.57367621527778
  1
1.0
 41
0.7
 11
-87.5
 21
-31.45687934027777
 31
0.0
100
AcDbText
 73
     3
  0
LINE
  5
B8
330
96E
100
AcDbEntity
  8
DIMNSIONS
  6
Continuous
 62
     7
100
AcDbLine
 10
-138.0
 20
5.000000000000227
 30
0.0
 11
-160.0
 21
5.000000000000227
 31
0.0
  0
LINE
  5
B9
330
96E
100
AcDbEntity
  8
DIMNSIONS
  6
Continuous
 62
     7
100
AcDbLine
 10
-138.0
 20
45.00000000000023
 30
0.0
 11
-160.0
 21
45.00000000000023
 31
0.0
  0
LINE
  5
BA
330
96E
100
AcDbEntity
  8
DIMNSIONS
  6
Continuous
 62
     7
100
AcDbLine
 10
-150.0
 20
5.000000000000227
 30
0.0
 11
-150.0
 21
45.00000000000023
 31
0.0
  0
LINE
  5
BB
330
96E
100
AcDbEntity
  8
DIMNSIONS
  6
Continuous
 62
     7
100
AcDbLine
 10
-150.0
 20
5.000000000000227
 30
0.0
 11
-153.3501989757512
 21
17.50311279296897
 31
0.0
  0
LINE
  5
BC
330
96E
100
AcDbEntity
  8
DIMNSIONS
  6
Continuous
 62
     7
100
AcDbLine
 10
-150.0
 20
5.000000000000227
 30
0.0
 11
-146.6498010242487
 21
17.50311279296897
 31
0.0
  0
LINE
  5
BD
330
96E
100
AcDbEntity
  8
DIMNSIONS
  6
Continuous
 62
     7
100
AcDbLine
 10
-150.0
 20
45.00000000000023
 30
0.0
 11
-146.6498010242487
 21
32.49688720703148
 31
0.0
  0
LINE
  5
BE
330
96E
100
AcDbEntity
  8
DIMNSIONS
  6
Continuous
 62
     7
100
AcDbLine
 10
-150.0
 20
45.00000000000023
 30
0.0
 11
-153.3501989757512
 21
32.49688720703148
 31
0.0
  0
TEXT
  5
BF
330
96E
100
AcDbEntity
  8
DIMNSIONS
 62
     7
100
AcDbText
 10
-154.9694444444444
 20
7.361111111111338
 30
0.0
 40
13.57367621527778
  1
40.0
 50
90.0
 41
0.7
 11
-168.5431206597222
 21
7.36111111111134
 31
0.0
100
AcDbText
 73
     3
  0
LINE
  5
C0
330
96E
100
AcDbEntity
  8
DIMNSIONS
  6
Continuous
 62
     7
100
AcDbLine
 10
-39.89311415723705
 20
-334.5568604746564
 30
0.0
 11
-39.89311415723705
 21
-472.5
 31
0.0
  0
LINE
  5
C1
330
96E
100
AcDbEntity
  8
DIMNSIONS
  6
Continuous
 62
     7
100
AcDbLine
 10
-155.76311416
 20
-360.0
 30
0.0
 11
-155.76311416
 21
-472.5
 31
0.0
  0
LINE
  5
C2
330
96E
100
AcDbEntity
  8
DIMNSIONS
  6
Continuous
 62
     7
100
AcDbLine
 10
-39.89311415723705
 20
-462.5
 30
0.0
 11
-155.76311416
 21
-462.5
 31
0.0
  0
LINE
  5
C3
330
96E
100
AcDbEntity
  8
DIMNSIONS
  6
Continuous
 62
     7
100
AcDbLine
 10
-39.89311415723705
 20
-462.5
 30
0.0
 11
-52.39622695020579
 21
-465.8501989757511
 31
0.0
  0
LINE
  5
C4
330
96E
100
AcDbEntity
  8
DIMNSIONS
  6
Continuous
 62
     7
100
AcDbLine
 10
-39.89311415723705
 20
-462.5
 30
0.0
 11
-52.39622695020579
 21
-459.1498010242488
 31
0.0
  0
LINE
  5
C5
330
96E
100
AcDbEntity
  8
DIMNSIONS
  6
Continuous
 62
     7
100
AcDbLine
 10
-155.76311416
 20
-462.5
 30
0.0
 11
-143.2600013670312
 21
-459.1498010242488
 31
0.0
  0
LINE
  5
C6
330
96E
100
AcDbEntity
  8
DIMNSIONS
  6
Continuous
 62
     7
100
AcDbLine
 10
-155.76311416
 20
-462.5
 30
0.0
 11
-143.2600013670312
 21
-465.8501989757511
 31
0.0
  0
TEXT
  5
C7
330
96E
100
AcDbEntity
  8
DIMNSIONS
 62
     7
100
AcDbText
 10
-111.0572808252852
 20
-457.5305555555555
 30
0.0
 40
13.57367621527778
  1
116
 41
0.7
 11
-111.0572808252852
 21
-443.9568793402777
 31
0.0
100
AcDbText
 73
     3
  0
TEXT
  5
C8
330
96E
100
AcDbEntity
  8
DIMNSIONS
 62
     7
100
AcDbText
 10
-100.0
 20
-286.4888888888889
 30
0.0
 40
13.57367621527778
  1
5～28
 41
0.7
 11
-100.0
 21
-272.9152126736111
 31
0.0
100
AcDbText
 73
     3
  0
LINE
  5
C9
330
96E
100
AcDbEntity
  8
DIMNSIONS
  6
Continuous
 62
     7
100
AcDbLine
 10
-112.6318930318706
 20
16.19381046253556
 30
0.0
 11
-62.5
 21
-25.0
 31
0.0
  0
LINE
  5
CA
330
96E
100
AcDbEntity
  8
DIMNSIONS
  6
Continuous
 62
     7
100
AcDbLine
 10
-112.6318930318706
 20
16.19381046253556
 30
0.0
 11
-100.8068008896594
 21
10.92894023440658
 31
0.0
  0
LINE
  5
CB
330
96E
100
AcDbEntity
  8
DIMNSIONS
  6
Continuous
 62
     7
100
AcDbLine
 10
-112.6318930318706
 20
16.19381046253556
 30
0.0
 11
-105.0234979486885
 21
5.721753026241909
 31
0.0
  0
LINE
  5
CC
330
96E
100
AcDbEntity
  8
DIMNSIONS
  6
Continuous
 62
     7
100
AcDbLine
 10
-146.893114157237
 20
-276.4999999999997
 30
0.0
 11
-146.893114157237
 21
-252.5
 31
0.0
  0
LINE
  5
CD
330
96E
100
AcDbEntity
  8
DIMNSIONS
  6
Continuous
 62
     7
100
AcDbLine
 10
-113.2
 20
-322.5
 30
0.0
 11
-113.2
 21
-252.5
 31
0.0
  0
LINE
  5
CE
330
96E
100
AcDbEntity
  8
DIMNSIONS
  6
Continuous
 62
     7
100
AcDbLine
 10
-113.2
 20
-262.5
 30
0.0
 11
-100.0
 21
-262.5
 31
0.0
  0
LINE
  5
CF
330
96E
100
AcDbEntity
  8
DIMNSIONS
  6
Continuous
 62
     7
100
AcDbLine
 10
-146.893114157237
 20
-262.5
 30
0.0
 11
-113.2
 21
-262.5
 31
0.0
  0
LINE
  5
D0
330
96E
100
AcDbEntity
  8
DIMNSIONS
  6
Continuous
 62
     7
100
AcDbLine
 10
-146.893114157237
 20
-262.5
 30
0.0
 11
-134.3900013642683
 21
-259.1498010242488
 31
0.0
  0
LINE
  5
D1
330
96E
100
AcDbEntity
  8
DIMNSIONS
  6
Continuous
 62
     7
100
AcDbLine
 10
-146.893114157237
 20
-262.5
 30
0.0
 11
-134.3900013642683
 21
-265.8501989757512
 31
0.0
  0
LINE
  5
D2
330
96E
100
AcDbEntity
  8
DIMNSIONS
  6
Continuous
 62
     7
100
AcDbLine
 10
-113.2
 20
-262.5
 30
0.0
 11
-125.7031127929687
 21
-265.8501989757512
 31
0.0
  0
LINE
  5
D3
330
96E
100
AcDbEntity
  8
DIMNSIONS
  6
Continuous
 62
     7
100
AcDbLine
 10
-113.2
 20
-262.5
 30
0.0
 11
-125.7031127929687
 21
-259.1498010242488
 31
0.0
  0
TEXT
  5
D4
330
96E
100
AcDbEntity
  8
DIMNSIONS
 62
     7
100
AcDbText
 10
-100.0
 20
-268.85
 30
0.0
 40
13.57367621527778
  1
取付可能板厚
 41
0.7
 11
-100.0
 21
-255.2763237847222
 31
0.0
100
AcDbText
 73
     3
  0
LINE
  5
D5
330
96E
100
AcDbEntity
  8
DIMNSIONS
  6
Continuous
 62
     7
100
AcDbLine
 10
-62.5
 20
-25.0
 30
0.0
 11
-62.5
 21
-15.0
 31
0.0
  0
TEXT
  5
D6
330
96E
100
AcDbEntity
  8
DIMNSIONS
 62
     7
100
AcDbText
 10
-56.15000000000001
 20
-15.0
 30
0.0
 40
13.57367621527778
  1
4.0×19(2ヵ所)
 50
90.0
 41
0.7
 11
-69.72367621527779
 21
-15.0
 31
0.0
100
AcDbText
 73
     3
  0
TEXT
  5
D7
330
96E
100
AcDbEntity
  8
DATA
 62
     7
100
AcDbText
 10
-437.5
 20
-596.4913511111111
 30
0.0
 40
9.501573350694446
  1
※仕様及び外観は予告なく変更されることがあります。
 41
0.7
 11
-437.5
 21
-586.9897777604166
 31
0.0
100
AcDbText
 73
     3
  0
TEXT
  5
D8
330
96E
100
AcDbEntity
  8
DATA
 62
     7
100
AcDbText
 10
-437.5
 20
-608.8385733333333
 30
0.0
 40
9.501573350694446
  1
　また、同一商品でも若干の個体差があることがあります。ご了承ください。
 41
0.7
 11
-437.5
 21
-599.3369999826389
 31
0.0
100
AcDbText
 73
     3
  0
CIRCLE
  5
D9
330
96E
100
AcDbEntity
  8
DATA
  6
Continuous
 62
     7
100
AcDbCircle
 10
-250.0
 20
-349.9999999999998
 30
0.0
 40
63.5
  0
CIRCLE
  5
DA
330
96E
100
AcDbEntity
  8
DATA
  6
Continuous
 62
     7
100
AcDbCircle
 10
-250.0
 20
-349.9999999999998
 30
0.0
 40
45.49999999999999
  0
LINE
  5
DB
330
96E
100
AcDbEntity
  8
DATA
  6
Continuous
 62
     7
100
AcDbLine
 10
-277.7182755501367
 20
-319.0198737006468
 30
0.0
 11
-254.7623894392396
 21
-315.0576823170481
 31
0.0
  0
LINE
  5
DC
330
96E
100
AcDbEntity
  8
DATA
  6
Continuous
 62
     7
100
AcDbLine
 10
-284.9393355818795
 20
-345.2413945337121
 30
0.0
 11
-280.9797448133458
 21
-322.2817902675009
 31
0.0
  0
ARC
  5
DD
330
96E
100
AcDbEntity
  8
DATA
  6
Continuous
 62
     7
100
AcDbCircle
 10
-250.0
 20
-342.6497037513145
 30
0.0
 40
28.00000000000001
100
AcDbArc
 50
85.63014321696272
 51
99.79278077222959
  0
ARC
  5
DE
330
96E
100
AcDbEntity
  8
DATA
  6
Continuous
 62
     7
100
AcDbCircle
 10
-277.037934201674
 20
-322.9615910483991
 30
0.0
 40
3.999999999999957
100
AcDbArc
 50
99.7927807722278
 51
170.2150766845088
  0
LINE
  5
DF
330
96E
100
AcDbEntity
  8
DATA
  6
Continuous
 62
     7
100
AcDbLine
 10
-273.1305565170182
 20
-381.7719676918209
 30
0.0
 11
-277.7182755501367
 21
-380.9801262993527
 31
0.0
  0
LINE
  5
E0
330
96E
100
AcDbEntity
  8
DATA
  6
Continuous
 62
     7
100
AcDbLine
 10
-280.9797448133461
 20
-377.7182097324986
 30
0.0
 11
-284.9393355818795
 21
-354.7586054662868
 31
0.0
  0
ARC
  5
E1
330
96E
100
AcDbEntity
  8
DATA
  6
Continuous
 62
     7
100
AcDbCircle
 10
-277.037934201674
 20
-377.0384089516005
 30
0.0
 40
4.000000000000022
100
AcDbArc
 50
189.7849233154906
 51
260.2072192277721
  0
ARC
  5
E2
330
96E
100
AcDbEntity
  8
DATA
  6
Continuous
 62
     7
100
AcDbCircle
 10
-257.3466613001754
 20
-349.9999999999996
 30
0.0
 40
27.99999999999997
100
AcDbArc
 50
170.2150766845089
 51
189.7849233154909
  0
CIRCLE
  5
E3
330
96E
100
AcDbEntity
  8
DATA
  6
Continuous
 62
     7
100
AcDbCircle
 10
-277.0
 20
-322.9999999999997
 30
0.0
 40
3.25
  0
LINE
  5
E4
330
96E
100
AcDbEntity
  8
DATA
  6
Continuous
 62
     7
100
AcDbLine
 10
-277.0
 20
-325.2516660498392
 30
0.0
 11
-277.0
 21
-320.7483339501603
 31
0.0
  0
LINE
  5
E5
330
96E
100
AcDbEntity
  8
DATA
  6
Continuous
 62
     7
100
AcDbLine
 10
-274.7483339501605
 20
-322.9999999999997
 30
0.0
 11
-279.2516660498372
 21
-322.9999999999997
 31
0.0
  0
CIRCLE
  5
E6
330
96E
100
AcDbEntity
  8
DATA
  6
Continuous
 62
     7
100
AcDbCircle
 10
-277.0
 20
-376.9999999999998
 30
0.0
 40
2.251666049839572
  0
LINE
  5
E7
330
96E
100
AcDbEntity
  8
DATA
  6
Continuous
 62
     7
100
AcDbLine
 10
-277.0
 20
-379.2516660498392
 30
0.0
 11
-277.0
 21
-374.7483339501602
 31
0.0
  0
LINE
  5
E8
330
96E
100
AcDbEntity
  8
DATA
  6
Continuous
 62
     7
100
AcDbLine
 10
-274.7483339501605
 20
-376.9999999999998
 30
0.0
 11
-279.2516660498372
 21
-376.9999999999998
 31
0.0
  0
ARC
  5
E9
330
96E
100
AcDbEntity
  8
DATA
  6
Continuous
 62
     7
100
AcDbCircle
 10
-250.0
 20
-349.9999999999998
 30
0.0
 40
32.15000000000009
100
AcDbArc
 50
86.54895912105351
 51
227.2850988289033
  0
ARC
  5
EA
330
96E
100
AcDbEntity
  8
DATA
  6
Continuous
 62
     7
100
AcDbCircle
 10
-250.0
 20
-349.9999999999998
 30
0.0
 40
29.50000000000001
100
AcDbArc
 50
86.8045074128784
 51
224.4845433071086
  0
ARC
  5
EB
330
96E
100
AcDbEntity
  8
DATA
  6
Continuous
 62
     7
100
AcDbCircle
 10
-250.0
 20
-349.9999999999998
 30
0.0
 40
22.0
100
AcDbArc
 50
89.51915112427212
 51
214.6988398918754
  0
ARC
  5
EC
330
96E
100
AcDbEntity
  8
DATA
  6
Continuous
 62
     7
100
AcDbCircle
 10
-250.0
 20
-349.9999999999998
 30
0.0
 40
11.50000000000001
100
AcDbArc
 50
110.0040493530498
 51
185.5236974755854
  0
ARC
  5
ED
330
96E
100
AcDbEntity
  8
DATA
  6
Continuous
 62
     7
100
AcDbCircle
 10
-250.0
 20
-349.9999999999998
 30
0.0
 40
12.50000000000001
100
AcDbArc
 50
105.5655601562064
 51
190.5158332065347
  0
CIRCLE
  5
EE
330
96E
100
AcDbEntity
  8
DATA
  6
Continuous
 62
     7
100
AcDbCircle
 10
-292.4165217066011
 20
-349.9999999999998
 30
0.0
 40
3.0
  0
LINE
  5
EF
330
96E
100
AcDbEntity
  8
DATA
  6
Continuous
 62
     7
100
AcDbLine
 10
-294.4165217066011
 20
-349.9999999999998
 30
0.0
 11
-290.4165217066011
 21
-349.9999999999998
 31
0.0
  0
LINE
  5
F0
330
96E
100
AcDbEntity
  8
DATA
  6
Continuous
 62
     7
100
AcDbLine
 10
-292.4165217066011
 20
-351.9999999999998
 30
0.0
 11
-292.4165217066011
 21
-347.9999999999998
 31
0.0
  0
ARC
  5
F1
330
96E
100
AcDbEntity
  8
DATA
  6
Continuous
 62
     7
100
AcDbCircle
 10
-250.0
 20
-350.0
 30
0.0
 40
44.99999999999983
100
AcDbArc
 50
200.4059317731394
 51
219.5940682268602
  0
LINE
  5
F2
330
96E
100
AcDbEntity
  8
DATA
  6
Continuous
 62
     7
100
AcDbLine
 10
-284.6760653723487
 20
-378.6804897150066
 30
0.0
 11
-285.1151514856174
 21
-378.9339962007
 31
0.0
  0
LINE
  5
F3
330
96E
100
AcDbEntity
  8
DATA
  6
Continuous
 62
     7
100
AcDbLine
 10
-292.6151514856174
 20
-365.9436151439335
 30
0.0
 11
-292.1760653723484
 21
-365.69010865824
 31
0.0
  0
LINE
  5
F4
330
96E
100
AcDbEntity
  8
DATA
  6
Continuous
 62
     7
100
AcDbLine
 10
-150.0
 20
-395.4999999999997
 30
0.0
 11
-150.0
 21
-304.4999999999997
 31
0.0
  0
LINE
  5
F5
330
96E
100
AcDbEntity
  8
DATA
  6
Continuous
 62
     7
100
AcDbLine
 10
-139.2
 20
-301.9999999999997
 30
0.0
 11
-99.20000000000003
 21
-301.9999999999997
 31
0.0
  0
LINE
  5
F6
330
96E
100
AcDbEntity
  8
DATA
  6
Continuous
 62
     7
100
AcDbLine
 10
-139.2
 20
-397.9999999999998
 30
0.0
 11
-59.36708521100014
 21
-397.9999999999998
 31
0.0
  0
LINE
  5
F7
330
96E
100
AcDbEntity
  8
DATA
  6
Continuous
 62
     7
100
AcDbLine
 10
-106.2
 20
-357.4999999999998
 30
0.0
 11
-139.2
 21
-357.4999999999998
 31
0.0
  0
LINE
  5
F8
330
96E
100
AcDbEntity
  8
DATA
  6
Continuous
 62
     7
100
AcDbLine
 10
-139.2
 20
-342.4999999999997
 30
0.0
 11
-113.2
 21
-342.4999999999997
 31
0.0
  0
LINE
  5
F9
330
96E
100
AcDbEntity
  8
DATA
  6
Continuous
 62
     7
100
AcDbLine
 10
-101.2
 20
-353.9999999999998
 30
0.0
 11
-139.2
 21
-353.9999999999998
 31
0.0
  0
LINE
  5
FA
330
96E
100
AcDbEntity
  8
DATA
  6
Continuous
 62
     7
100
AcDbLine
 10
-139.2
 20
-345.9999999999998
 30
0.0
 11
-113.2
 21
-345.9999999999998
 31
0.0
  0
LINE
  5
FB
330
96E
100
AcDbEntity
  8
DATA
  6
Continuous
 62
     7
100
AcDbLine
 10
-106.2
 20
-356.0999999999999
 30
0.0
 11
-139.2
 21
-356.0999999999999
 31
0.0
  0
LINE
  5
FC
330
96E
100
AcDbEntity
  8
DATA
  6
Continuous
 62
     7
100
AcDbLine
 10
-139.2
 20
-343.8999999999997
 30
0.0
 11
-113.2
 21
-343.8999999999997
 31
0.0
  0
LINE
  5
FD
330
96E
100
AcDbEntity
  8
DATA
  6
Continuous
 62
     7
100
AcDbLine
 10
-113.2
 20
-353.9999999999998
 30
0.0
 11
-113.2
 21
-332.5
 31
0.0
  0
LINE
  5
FE
330
96E
100
AcDbEntity
  8
DATA
  6
Continuous
 62
     7
100
AcDbLine
 10
-106.2
 20
-353.9999999999998
 30
0.0
 11
-106.2
 21
-357.4999999999998
 31
0.0
  0
LINE
  5
FF
330
96E
100
AcDbEntity
  8
DATA
  6
Continuous
 62
     7
100
AcDbLine
 10
-113.2
 20
-351.8999999999997
 30
0.0
 11
-139.2
 21
-351.8999999999997
 31
0.0
  0
LINE
  5
100
330
96E
100
AcDbEntity
  8
DATA
  6
Continuous
 62
     7
100
AcDbLine
 10
-139.2
 20
-348.0999999999998
 30
0.0
 11
-113.2
 21
-348.0999999999998
 31
0.0
  0
LINE
  5
101
330
96E
100
AcDbEntity
  8
DATA
  6
Continuous
 62
     7
100
AcDbLine
 10
-138.95
 20
-348.0999999999998
 30
0.0
 11
-138.25
 21
-351.8999999999997
 31
0.0
  0
LINE
  5
102
330
96E
100
AcDbEntity
  8
DATA
  6
Continuous
 62
     7
100
AcDbLine
 10
-137.45
 20
-348.0999999999998
 30
0.0
 11
-136.75
 21
-351.8999999999997
 31
0.0
  0
LINE
  5
103
330
96E
100
AcDbEntity
  8
DATA
  6
Continuous
 62
     7
100
AcDbLine
 10
-135.95
 20
-348.0999999999998
 30
0.0
 11
-135.25
 21
-351.8999999999997
 31
0.0
  0
LINE
  5
104
330
96E
100
AcDbEntity
  8
DATA
  6
Continuous
 62
     7
100
AcDbLine
 10
-134.45
 20
-348.0999999999998
 30
0.0
 11
-133.75
 21
-351.8999999999997
 31
0.0
  0
LINE
  5
105
330
96E
100
AcDbEntity
  8
DATA
  6
Continuous
 62
     7
100
AcDbLine
 10
-132.95
 20
-348.0999999999998
 30
0.0
 11
-132.25
 21
-351.8999999999997
 31
0.0
  0
LINE
  5
106
330
96E
100
AcDbEntity
  8
DATA
  6
Continuous
 62
     7
100
AcDbLine
 10
-131.45
 20
-348.0999999999998
 30
0.0
 11
-130.75
 21
-351.8999999999997
 31
0.0
  0
LINE
  5
107
330
96E
100
AcDbEntity
  8
DATA
  6
Continuous
 62
     7
100
AcDbLine
 10
-129.95
 20
-348.0999999999998
 30
0.0
 11
-129.25
 21
-351.8999999999997
 31
0.0
  0
LINE
  5
108
330
96E
100
AcDbEntity
  8
DATA
  6
Continuous
 62
     7
100
AcDbLine
 10
-128.45
 20
-348.0999999999998
 30
0.0
 11
-127.75
 21
-351.8999999999997
 31
0.0
  0
LINE
  5
109
330
96E
100
AcDbEntity
  8
DATA
  6
Continuous
 62
     7
100
AcDbLine
 10
-126.95
 20
-348.0999999999998
 30
0.0
 11
-126.25
 21
-351.8999999999997
 31
0.0
  0
LINE
  5
10A
330
96E
100
AcDbEntity
  8
DATA
  6
Continuous
 62
     7
100
AcDbLine
 10
-125.45
 20
-348.0999999999998
 30
0.0
 11
-124.75
 21
-351.8999999999997
 31
0.0
  0
LINE
  5
10B
330
96E
100
AcDbEntity
  8
DATA
  6
Continuous
 62
     7
100
AcDbLine
 10
-123.95
 20
-348.0999999999998
 30
0.0
 11
-123.25
 21
-351.8999999999997
 31
0.0
  0
LINE
  5
10C
330
96E
100
AcDbEntity
  8
DATA
  6
Continuous
 62
     7
100
AcDbLine
 10
-122.45
 20
-348.0999999999998
 30
0.0
 11
-121.75
 21
-351.8999999999997
 31
0.0
  0
LINE
  5
10D
330
96E
100
AcDbEntity
  8
DATA
  6
Continuous
 62
     7
100
AcDbLine
 10
-120.95
 20
-348.0999999999998
 30
0.0
 11
-120.25
 21
-351.8999999999997
 31
0.0
  0
LINE
  5
10E
330
96E
100
AcDbEntity
  8
DATA
  6
Continuous
 62
     7
100
AcDbLine
 10
-119.45
 20
-348.0999999999998
 30
0.0
 11
-118.75
 21
-351.8999999999997
 31
0.0
  0
LINE
  5
10F
330
96E
100
AcDbEntity
  8
DATA
  6
Continuous
 62
     7
100
AcDbLine
 10
-117.95
 20
-348.0999999999998
 30
0.0
 11
-117.25
 21
-351.8999999999997
 31
0.0
  0
LINE
  5
110
330
96E
100
AcDbEntity
  8
DATA
  6
Continuous
 62
     7
100
AcDbLine
 10
-116.45
 20
-348.0999999999998
 30
0.0
 11
-115.75
 21
-351.8999999999997
 31
0.0
  0
LINE
  5
111
330
96E
100
AcDbEntity
  8
DATA
  6
Continuous
 62
     7
100
AcDbLine
 10
-114.95
 20
-348.0999999999998
 30
0.0
 11
-114.25
 21
-351.8999999999997
 31
0.0
  0
LINE
  5
112
330
96E
100
AcDbEntity
  8
DATA
  6
Continuous
 62
     7
100
AcDbLine
 10
-113.45
 20
-348.0999999999998
 30
0.0
 11
-113.2
 21
-349.4571428571425
 31
0.0
  0
LINE
  5
113
330
96E
100
AcDbEntity
  8
DATA
  6
Continuous
 62
     7
100
AcDbLine
 10
-101.2
 20
-353.9999999999998
 30
0.0
 11
-101.2
 21
-342.3999999999998
 31
0.0
  0
LINE
  5
114
330
96E
100
AcDbEntity
  8
DATA
  6
Continuous
 62
     7
100
AcDbLine
 10
-99.20000000000003
 20
-352.4499999999997
 30
0.0
 11
-99.20000000000003
 21
-347.5499999999998
 31
0.0
  0
LINE
  5
115
330
96E
100
AcDbEntity
  8
DATA
  6
Continuous
 62
     7
100
AcDbLine
 10
-113.2
 20
-346.3999999999998
 30
0.0
 11
-101.2
 21
-346.3999999999998
 31
0.0
  0
ARC
  5
116
330
96E
100
AcDbEntity
  8
DATA
  6
Continuous
 62
     7
100
AcDbCircle
 10
-113.8638952164008
 20
-345.5274487471523
 30
0.0
 40
13.04435424687798
100
AcDbArc
 50
13.87207888707652
 51
87.08265857058137
  0
LINE
  5
117
330
96E
100
AcDbEntity
  8
DATA
  6
Continuous
 62
     7
100
AcDbLine
 10
-100.5
 20
-353.7499999999998
 30
0.0
 11
-101.2
 21
-353.7499999999998
 31
0.0
  0
LINE
  5
118
330
96E
100
AcDbEntity
  8
DATA
  6
Continuous
 62
     7
100
AcDbLine
 10
-101.2
 20
-346.2499999999998
 30
0.0
 11
-100.5
 21
-346.2499999999998
 31
0.0
  0
ARC
  5
119
330
96E
100
AcDbEntity
  8
DATA
  6
Continuous
 62
     7
100
AcDbCircle
 10
-100.5
 20
-347.5499999999998
 30
0.0
 40
1.299999999999954
100
AcDbArc
 50
0.0
 51
90.0
  0
ARC
  5
11A
330
96E
100
AcDbEntity
  8
DATA
  6
Continuous
 62
     7
100
AcDbCircle
 10
-100.5
 20
-352.4499999999997
 30
0.0
 40
1.300000000000011
100
AcDbArc
 50
270.0
 51
0.0
  0
LINE
  5
11B
330
96E
100
AcDbEntity
  8
DATA
  6
Continuous
 62
     7
100
AcDbLine
 10
-139.2
 20
-360.5999999999997
 30
0.0
 11
-55.36708521100013
 21
-360.5999999999997
 31
0.0
  0
LINE
  5
11C
330
96E
100
AcDbEntity
  8
DATA
  6
Continuous
 62
     7
100
AcDbLine
 10
-99.20000000000003
 20
-315.0129510429123
 30
0.0
 11
-99.20000000000003
 21
-301.9999999999997
 31
0.0
  0
LINE
  5
11D
330
96E
100
AcDbEntity
  8
DATA
  6
Continuous
 62
     7
100
AcDbLine
 10
-91.20000000000002
 20
-330.5203921945626
 30
0.0
 11
-91.20000000000002
 21
-321.3638040039981
 31
0.0
  0
LINE
  5
11E
330
96E
100
AcDbEntity
  8
DATA
  6
Continuous
 62
     7
100
AcDbLine
 10
-54.16708521100009
 20
-339.5665829577998
 30
0.0
 11
-89.59223227027631
 21
-332.4815535459445
 31
0.0
  0
LINE
  5
11F
330
96E
100
AcDbEntity
  8
DATA
  6
Continuous
 62
     7
100
AcDbLine
 10
-91.20000000000002
 20
-321.3638040039981
 30
0.0
 11
-97.70000000000003
 21
-317.6110272542656
 31
0.0
  0
LINE
  5
120
330
96E
100
AcDbEntity
  8
DATA
  6
Continuous
 62
     7
100
AcDbLine
 10
-111.2
 20
-301.9999999999997
 30
0.0
 11
-111.2
 21
-300.7999999999997
 31
0.0
  0
LINE
  5
121
330
96E
100
AcDbEntity
  8
DATA
  6
Continuous
 62
     7
100
AcDbLine
 10
-111.2
 20
-300.7999999999997
 30
0.0
 11
-58.16708521100009
 21
-300.7999999999997
 31
0.0
  0
ARC
  5
122
330
96E
100
AcDbEntity
  8
DATA
  6
Continuous
 62
     7
100
AcDbCircle
 10
-89.20000000000003
 20
-330.5203921945626
 30
0.0
 40
2.0
100
AcDbArc
 50
180.0
 51
258.6900675259824
  0
ARC
  5
123
330
96E
100
AcDbEntity
  8
DATA
  6
Continuous
 62
     7
100
AcDbCircle
 10
-96.20000000000004
 20
-315.0129510429123
 30
0.0
 40
3.0
100
AcDbArc
 50
180.0
 51
240.0
  0
LINE
  5
124
330
96E
100
AcDbEntity
  8
DATA
  6
Continuous
 62
     7
100
AcDbLine
 10
-101.7
 20
-298.2999999999997
 30
0.0
 11
-106.7
 21
-298.2999999999997
 31
0.0
  0
LINE
  5
125
330
96E
100
AcDbEntity
  8
DATA
  6
Continuous
 62
     7
100
AcDbLine
 10
-108.2
 20
-300.7999999999997
 30
0.0
 11
-108.2
 21
-299.7999999999997
 31
0.0
  0
LINE
  5
126
330
96E
100
AcDbEntity
  8
DATA
  6
Continuous
 62
     7
100
AcDbLine
 10
-100.2
 20
-300.7999999999997
 30
0.0
 11
-100.2
 21
-299.7999999999997
 31
0.0
  0
ARC
  5
127
330
96E
100
AcDbEntity
  8
DATA
  6
Continuous
 62
     7
100
AcDbCircle
 10
-106.7
 20
-299.7999999999997
 30
0.0
 40
1.5
100
AcDbArc
 50
90.0
 51
180.0
  0
ARC
  5
128
330
96E
100
AcDbEntity
  8
DATA
  6
Continuous
 62
     7
100
AcDbCircle
 10
-101.7
 20
-299.7999999999997
 30
0.0
 40
1.5
100
AcDbArc
 50
0.0
 51
90.0
  0
LINE
  5
129
330
96E
100
AcDbEntity
  8
DATA
  6
Continuous
 62
     7
100
AcDbLine
 10
-41.58699254096745
 20
-318.9999999999979
 30
0.0
 11
-41.58699254096745
 21
-317.7999999999979
 31
0.0
  0
LINE
  5
12A
330
96E
100
AcDbEntity
  8
DATA
  6
Continuous
 62
     7
100
AcDbLine
 10
-49.06204596757426
 20
-343.9999999999979
 30
0.0
 11
-49.06204596757426
 21
-324.5568604746564
 31
0.0
  0
LINE
  5
12B
330
96E
100
AcDbEntity
  8
DATA
  6
Continuous
 62
     7
100
AcDbLine
 10
-49.06204596757426
 20
-321.4416170285576
 30
0.0
 11
-49.06204596757426
 21
-318.9999999999979
 31
0.0
  0
LINE
  5
12C
330
96E
100
AcDbEntity
  8
DATA
  6
Continuous
 62
     7
100
AcDbLine
 10
-44.36204596757422
 20
-318.9999999999979
 30
0.0
 11
-44.36204596757422
 21
-321.4416170285576
 31
0.0
  0
LINE
  5
12D
330
96E
100
AcDbEntity
  8
DATA
  6
Continuous
 62
     7
100
AcDbLine
 10
-44.36204596757422
 20
-324.5568604746564
 30
0.0
 11
-44.36204596757422
 21
-343.9999999999979
 31
0.0
  0
LINE
  5
12E
330
96E
100
AcDbEntity
  8
DATA
  6
Continuous
 62
     7
100
AcDbLine
 10
-49.06204596757426
 20
-343.9999999999979
 30
0.0
 11
-44.36204596757422
 21
-343.9999999999979
 31
0.0
  0
LINE
  5
12F
330
96E
100
AcDbEntity
  8
DATA
  6
Continuous
 62
     7
100
AcDbLine
 10
-50.46204596757411
 20
-317.7999999999979
 30
0.0
 11
-50.46204596757411
 21
-314.6068604746554
 31
0.0
  0
LINE
  5
130
330
96E
100
AcDbEntity
  8
DATA
  6
Continuous
 62
     7
100
AcDbLine
 10
-42.96204596757411
 20
-314.6068604746554
 30
0.0
 11
-42.96204596757411
 21
-317.7999999999979
 31
0.0
  0
ARC
  5
131
330
96E
100
AcDbEntity
  8
DATA
  6
Continuous
 62
     7
100
AcDbCircle
 10
-46.71204596757411
 20
-325.8897013715241
 30
0.0
 40
11.88970137152433
100
AcDbArc
 50
71.61509687496077
 51
108.3849031250393
  0
LINE
  5
132
330
96E
100
AcDbEntity
  8
DATA
  6
Continuous
 62
     7
100
AcDbLine
 10
-44.36204596757422
 20
-343.9999999999979
 30
0.0
 11
-49.06204596757426
 21
-342.9568604746564
 31
0.0
  0
LINE
  5
133
330
96E
100
AcDbEntity
  8
DATA
  6
Continuous
 62
     7
100
AcDbLine
 10
-44.36204596757422
 20
-342.4999999999979
 30
0.0
 11
-49.06204596757426
 21
-341.4568604746563
 31
0.0
  0
LINE
  5
134
330
96E
100
AcDbEntity
  8
DATA
  6
Continuous
 62
     7
100
AcDbLine
 10
-44.36204596757422
 20
-340.999999999998
 30
0.0
 11
-49.06204596757426
 21
-339.9568604746564
 31
0.0
  0
LINE
  5
135
330
96E
100
AcDbEntity
  8
DATA
  6
Continuous
 62
     7
100
AcDbLine
 10
-44.36204596757422
 20
-339.499999999998
 30
0.0
 11
-49.06204596757426
 21
-338.4568604746564
 31
0.0
  0
LINE
  5
136
330
96E
100
AcDbEntity
  8
DATA
  6
Continuous
 62
     7
100
AcDbLine
 10
-44.36204596757422
 20
-337.9999999999979
 30
0.0
 11
-49.06204596757426
 21
-336.9568604746564
 31
0.0
  0
LINE
  5
137
330
96E
100
AcDbEntity
  8
DATA
  6
Continuous
 62
     7
100
AcDbLine
 10
-44.36204596757422
 20
-336.499999999998
 30
0.0
 11
-49.06204596757426
 21
-335.4568604746564
 31
0.0
  0
LINE
  5
138
330
96E
100
AcDbEntity
  8
DATA
  6
Continuous
 62
     7
100
AcDbLine
 10
-44.36204596757422
 20
-334.999999999998
 30
0.0
 11
-49.06204596757426
 21
-333.9568604746564
 31
0.0
  0
LINE
  5
139
330
96E
100
AcDbEntity
  8
DATA
  6
Continuous
 62
     7
100
AcDbLine
 10
-44.36204596757422
 20
-333.4999999999979
 30
0.0
 11
-49.06204596757426
 21
-332.4568604746564
 31
0.0
  0
LINE
  5
13A
330
96E
100
AcDbEntity
  8
DATA
  6
Continuous
 62
     7
100
AcDbLine
 10
-44.36204596757422
 20
-331.9999999999979
 30
0.0
 11
-49.06204596757426
 21
-330.9568604746564
 31
0.0
  0
LINE
  5
13B
330
96E
100
AcDbEntity
  8
DATA
  6
Continuous
 62
     7
100
AcDbLine
 10
-44.36204596757422
 20
-330.499999999998
 30
0.0
 11
-49.06204596757426
 21
-329.4568604746564
 31
0.0
  0
LINE
  5
13C
330
96E
100
AcDbEntity
  8
DATA
  6
Continuous
 62
     7
100
AcDbLine
 10
-44.36204596757422
 20
-328.999999999998
 30
0.0
 11
-49.06204596757426
 21
-327.9568604746564
 31
0.0
  0
LINE
  5
13D
330
96E
100
AcDbEntity
  8
DATA
  6
Continuous
 62
     7
100
AcDbLine
 10
-44.36204596757422
 20
-327.4999999999979
 30
0.0
 11
-49.06204596757426
 21
-326.4568604746564
 31
0.0
  0
LINE
  5
13E
330
96E
100
AcDbEntity
  8
DATA
  6
Continuous
 62
     7
100
AcDbLine
 10
-44.36204596757422
 20
-325.999999999998
 30
0.0
 11
-49.06204596757426
 21
-324.9568604746564
 31
0.0
  0
LINE
  5
13F
330
96E
100
AcDbEntity
  8
DATA
  6
Continuous
 62
     7
100
AcDbLine
 10
-54.16708521100009
 20
-321.4416170285576
 30
0.0
 11
-39.89311415723705
 21
-321.4416170285576
 31
0.0
  0
LINE
  5
140
330
96E
100
AcDbEntity
  8
DATA
  6
Continuous
 62
     7
100
AcDbLine
 10
-54.16708521100009
 20
-324.5568604746564
 30
0.0
 11
-39.89311415723705
 21
-324.5568604746564
 31
0.0
  0
LINE
  5
141
330
96E
100
AcDbEntity
  8
DATA
  6
Continuous
 62
     7
100
AcDbLine
 10
-41.58699254096745
 20
-318.9999999999979
 30
0.0
 11
-52.46777186591589
 21
-318.9999999999979
 31
0.0
  0
LINE
  5
142
330
96E
100
AcDbEntity
  8
DATA
  6
Continuous
 62
     7
100
AcDbLine
 10
-41.58699254096745
 20
-317.7999999999979
 30
0.0
 11
-52.46777186591589
 21
-317.7999999999979
 31
0.0
  0
LINE
  5
143
330
96E
100
AcDbEntity
  8
DATA
  6
Continuous
 62
     7
100
AcDbLine
 10
-52.46777186591589
 20
-318.9999999999979
 30
0.0
 11
-52.46777186591589
 21
-317.7999999999979
 31
0.0
  0
LINE
  5
144
330
96E
100
AcDbEntity
  8
DATA
  6
Continuous
 62
     7
100
AcDbLine
 10
-54.16708521100009
 20
-304.7999999999997
 30
0.0
 11
-54.16708521100009
 21
-339.5665829577998
 31
0.0
  0
LINE
  5
145
330
96E
100
AcDbEntity
  8
DATA
  6
Continuous
 62
     7
100
AcDbLine
 10
-39.89311415723705
 20
-321.4416170285576
 30
0.0
 11
-39.89311415723705
 21
-324.5568604746564
 31
0.0
  0
LINE
  5
146
330
96E
100
AcDbEntity
  8
DATA
  6
Continuous
 62
     7
100
AcDbLine
 10
-55.36708521100013
 20
-393.9999999999998
 30
0.0
 11
-55.36708521100013
 21
-339.3265829577998
 31
0.0
  0
LINE
  5
147
330
96E
100
AcDbEntity
  8
DATA
  6
Continuous
 62
     7
100
AcDbLine
 10
-146.893114157237
 20
-413.4996850385887
 30
0.0
 11
-146.893114157237
 21
-286.4999999999997
 31
0.0
  0
LINE
  5
148
330
96E
100
AcDbEntity
  8
DATA
  6
Continuous
 62
     7
100
AcDbLine
 10
-146.893114157237
 20
-286.4999999999997
 30
0.0
 11
-148.393114157237
 21
-286.4999999999997
 31
0.0
  0
LINE
  5
149
330
96E
100
AcDbEntity
  8
DATA
  6
Continuous
 62
     7
100
AcDbLine
 10
-146.893114157237
 20
-413.4996850385887
 30
0.0
 11
-148.393114157237
 21
-413.4996850385887
 31
0.0
  0
LINE
  5
14A
330
96E
100
AcDbEntity
  8
DATA
  6
Continuous
 62
     7
100
AcDbLine
 10
-148.393114157237
 20
-413.4996850385887
 30
0.0
 11
-148.393114157237
 21
-286.4999999999997
 31
0.0
  0
LINE
  5
14B
330
96E
100
AcDbEntity
  8
DATA
  6
Continuous
 62
     7
100
AcDbLine
 10
-150.0
 20
-304.4999999999997
 30
0.0
 11
-148.393114157237
 21
-286.4999999999997
 31
0.0
  0
LINE
  5
14C
330
96E
100
AcDbEntity
  8
DATA
  6
Continuous
 62
     7
100
AcDbLine
 10
-148.393114157237
 20
-413.4996850385887
 30
0.0
 11
-150.0
 21
-395.4999999999997
 31
0.0
  0
LINE
  5
14D
330
96E
100
AcDbEntity
  8
DATA
  6
Continuous
 62
     7
100
AcDbLine
 10
-139.2
 20
-398.9999999999998
 30
0.0
 11
-139.2
 21
-300.9999999999997
 31
0.0
  0
LINE
  5
14E
330
96E
100
AcDbEntity
  8
DATA
  6
Continuous
 62
     7
100
AcDbLine
 10
-139.2
 20
-300.9999999999997
 30
0.0
 11
-146.893114157237
 21
-300.9999999999997
 31
0.0
  0
LINE
  5
14F
330
96E
100
AcDbEntity
  8
DATA
  6
Continuous
 62
     7
100
AcDbLine
 10
-139.2
 20
-398.9999999999998
 30
0.0
 11
-146.893114157237
 21
-398.9999999999998
 31
0.0
  0
ARC
  5
150
330
96E
100
AcDbEntity
  8
DATA
  6
Continuous
 62
     7
100
AcDbCircle
 10
-59.36708521100014
 20
-393.9999999999998
 30
0.0
 40
4.0
100
AcDbArc
 50
270.0
 51
0.0
  0
ARC
  5
151
330
96E
100
AcDbEntity
  8
DATA
  6
Continuous
 62
     7
100
AcDbCircle
 10
-58.16708521100009
 20
-304.7999999999997
 30
0.0
 40
4.0
100
AcDbArc
 50
0.0
 51
90.0
  0
CIRCLE
  5
152
330
96E
100
AcDbEntity
  8
DATA
  6
Continuous
 62
     7
100
AcDbCircle
 10
37.5
 20
-349.9999999999998
 30
0.0
 40
49.0
  0
CIRCLE
  5
153
330
96E
100
AcDbEntity
  8
DATA
  6
Continuous
 62
     7
100
AcDbCircle
 10
37.5
 20
-349.9999999999998
 30
0.0
 40
48.0
  0
LINE
  5
154
330
96E
100
AcDbEntity
  8
DATA
  6
Continuous
 62
     7
100
AcDbLine
 10
0.5
 20
-355.9581286820208
 30
0.0
 11
0.5
 21
-323.2605160857578
 31
0.0
  0
LINE
  5
155
330
96E
100
AcDbEntity
  8
DATA
  6
Continuous
 62
     7
100
AcDbLine
 10
74.5
 20
-344.0418713179788
 30
0.0
 11
74.5
 21
-376.7394839142417
 31
0.0
  0
LINE
  5
156
330
96E
100
AcDbEntity
  8
DATA
  6
Continuous
 62
     7
100
AcDbLine
 10
17.60697373510607
 20
-335.6864515359437
 30
0.0
 11
25.00890431598691
 21
-335.6864515359437
 31
0.0
  0
LINE
  5
157
330
96E
100
AcDbEntity
  8
DATA
  6
Continuous
 62
     7
100
AcDbLine
 10
50.82996315422497
 20
-335.6864515359437
 30
0.0
 11
58.23189373510604
 21
-335.6864515359437
 31
0.0
  0
LINE
  5
158
330
96E
100
AcDbEntity
  8
DATA
  6
Continuous
 62
     7
100
AcDbLine
 10
58.23189373510604
 20
-332.6945717303106
 30
0.0
 11
58.23189373510604
 21
-335.6864515359437
 31
0.0
  0
LINE
  5
159
330
96E
100
AcDbEntity
  8
DATA
  6
Continuous
 62
     7
100
AcDbLine
 10
17.60697373510607
 20
-332.6945717303106
 30
0.0
 11
17.60697373510607
 21
-335.6864515359437
 31
0.0
  0
ARC
  5
15A
330
96E
100
AcDbEntity
  8
DATA
  6
Continuous
 62
     7
100
AcDbCircle
 10
37.91943373510594
 20
-334.3982848072936
 30
0.0
 40
12.97463461538448
100
AcDbArc
 50
185.6979109190199
 51
354.3020890809801
  0
LINE
  5
15B
330
96E
100
AcDbEntity
  8
DATA
  6
Continuous
 62
     7
100
AcDbLine
 10
17.60697373510607
 20
-332.6945717303106
 30
0.0
 11
27.35503373510596
 21
-332.6945717303106
 31
0.0
  0
LINE
  5
15C
330
96E
100
AcDbEntity
  8
DATA
  6
Continuous
 62
     7
100
AcDbLine
 10
48.48383373510636
 20
-332.6945717303106
 30
0.0
 11
58.23189373510604
 21
-332.6945717303106
 31
0.0
  0
ARC
  5
15D
330
96E
100
AcDbEntity
  8
DATA
  6
Continuous
 62
     7
100
AcDbCircle
 10
37.91943373510618
 20
-333.3318740980283
 30
0.0
 40
10.58360532464708
100
AcDbArc
 50
176.5477889834621
 51
3.452211016537773
  0
LINE
  5
15E
330
96E
100
AcDbEntity
  8
DATA
  6
Continuous
 62
     7
100
AcDbLine
 10
58.23189373510604
 20
-330.3496427360818
 30
0.0
 11
48.09967373510608
 21
-330.3496427360818
 31
0.0
  0
LINE
  5
15F
330
96E
100
AcDbEntity
  8
DATA
  6
Continuous
 62
     7
100
AcDbLine
 10
27.73919373510625
 20
-330.3496427360818
 30
0.0
 11
17.60697373510607
 21
-330.3496427360818
 31
0.0
  0
LINE
  5
160
330
96E
100
AcDbEntity
  8
DATA
  6
Continuous
 62
     7
100
AcDbLine
 10
58.23189373510604
 20
-329.197162736082
 30
0.0
 11
47.61947373510611
 21
-329.197162736082
 31
0.0
  0
LINE
  5
161
330
96E
100
AcDbEntity
  8
DATA
  6
Continuous
 62
     7
100
AcDbLine
 10
28.21939373510623
 20
-329.197162736082
 30
0.0
 11
17.60697373510607
 21
-329.197162736082
 31
0.0
  0
LINE
  5
162
330
96E
100
AcDbEntity
  8
DATA
  6
Continuous
 62
     7
100
AcDbLine
 10
58.23189373510604
 20
-330.3496427360818
 30
0.0
 11
58.23189373510604
 21
-329.197162736082
 31
0.0
  0
LINE
  5
163
330
96E
100
AcDbEntity
  8
DATA
  6
Continuous
 62
     7
100
AcDbLine
 10
17.60697373510607
 20
-330.3496427360818
 30
0.0
 11
17.60697373510607
 21
-329.197162736082
 31
0.0
  0
LINE
  5
164
330
96E
100
AcDbEntity
  8
DATA
  6
Continuous
 62
     7
100
AcDbLine
 10
43.96995373510617
 20
-334.4793627360819
 30
0.0
 11
48.09967373510608
 21
-330.3496427360818
 31
0.0
  0
LINE
  5
165
330
96E
100
AcDbEntity
  8
DATA
  6
Continuous
 62
     7
100
AcDbLine
 10
47.61947373510611
 20
-329.197162736082
 30
0.0
 11
43.96995373510617
 21
-333.0453515359441
 31
0.0
  0
LINE
  5
166
330
96E
100
AcDbEntity
  8
DATA
  6
Continuous
 62
     7
100
AcDbLine
 10
31.86891373510616
 20
-334.4793627360819
 30
0.0
 11
27.73919373510625
 21
-330.3496427360818
 31
0.0
  0
LINE
  5
167
330
96E
100
AcDbEntity
  8
DATA
  6
Continuous
 62
     7
100
AcDbLine
 10
28.21939373510623
 20
-329.197162736082
 30
0.0
 11
31.86891373510616
 21
-333.0453515359441
 31
0.0
  0
ARC
  5
168
330
96E
100
AcDbEntity
  8
DATA
  6
Continuous
 62
     7
100
AcDbCircle
 10
37.91943373510618
 20
-353.1932531054404
 30
0.0
 40
19.66770156949636
100
AcDbArc
 50
72.08309497494994
 51
107.91690502505
  0
ARC
  5
169
330
96E
100
AcDbEntity
  8
DATA
  6
Continuous
 62
     7
100
AcDbCircle
 10
37.91943373510594
 20
-358.0973855359442
 30
0.0
 40
25.7723340000001
100
AcDbArc
 50
76.42205085112195
 51
103.5779491488771
  0
LINE
  5
16A
330
96E
100
AcDbEntity
  8
DATA
  6
Continuous
 62
     7
100
AcDbLine
 10
51.0528524241929
 20
-354.3596427360818
 30
0.0
 11
51.0528524241929
 21
-335.6864515359437
 31
0.0
  0
LINE
  5
16B
330
96E
100
AcDbEntity
  8
DATA
  6
Continuous
 62
     7
100
AcDbLine
 10
51.0528524241929
 20
-332.6945717303106
 30
0.0
 11
51.0528524241929
 21
-330.3496427360818
 31
0.0
  0
LINE
  5
16C
330
96E
100
AcDbEntity
  8
DATA
  6
Continuous
 62
     7
100
AcDbLine
 10
55.56673242419289
 20
-330.3496427360818
 30
0.0
 11
55.56673242419289
 21
-332.6945717303106
 31
0.0
  0
LINE
  5
16D
330
96E
100
AcDbEntity
  8
DATA
  6
Continuous
 62
     7
100
AcDbLine
 10
55.56673242419289
 20
-335.6864515359437
 30
0.0
 11
55.56673242419289
 21
-354.3596427360818
 31
0.0
  0
LINE
  5
16E
330
96E
100
AcDbEntity
  8
DATA
  6
Continuous
 62
     7
100
AcDbLine
 10
51.0528524241929
 20
-354.3596427360818
 30
0.0
 11
55.56673242419289
 21
-354.3596427360818
 31
0.0
  0
LINE
  5
16F
330
96E
100
AcDbEntity
  8
DATA
  6
Continuous
 62
     7
100
AcDbLine
 10
49.7082924241929
 20
-329.197162736082
 30
0.0
 11
49.7082924241929
 21
-326.1304715359429
 31
0.0
  0
LINE
  5
170
330
96E
100
AcDbEntity
  8
DATA
  6
Continuous
 62
     7
100
AcDbLine
 10
56.91129242419289
 20
-326.1304715359429
 30
0.0
 11
56.91129242419289
 21
-329.197162736082
 31
0.0
  0
ARC
  5
171
330
96E
100
AcDbEntity
  8
DATA
  6
Continuous
 62
     7
100
AcDbCircle
 10
53.30979242419289
 20
-336.9665119332954
 30
0.0
 40
11.41886919721168
100
AcDbArc
 50
71.61509687496033
 51
108.3849031250396
  0
LINE
  5
172
330
96E
100
AcDbEntity
  8
DATA
  6
Continuous
 62
     7
100
AcDbLine
 10
55.56673242419289
 20
-354.3596427360818
 30
0.0
 11
51.0528524241929
 21
-353.357811535944
 31
0.0
  0
LINE
  5
173
330
96E
100
AcDbEntity
  8
DATA
  6
Continuous
 62
     7
100
AcDbLine
 10
55.56673242419289
 20
-352.9190427360819
 30
0.0
 11
51.0528524241929
 21
-351.9172115359438
 31
0.0
  0
LINE
  5
174
330
96E
100
AcDbEntity
  8
DATA
  6
Continuous
 62
     7
100
AcDbLine
 10
55.56673242419289
 20
-351.4784427360817
 30
0.0
 11
51.0528524241929
 21
-350.476611535944
 31
0.0
  0
LINE
  5
175
330
96E
100
AcDbEntity
  8
DATA
  6
Continuous
 62
     7
100
AcDbLine
 10
55.56673242419289
 20
-350.0378427360821
 30
0.0
 11
51.0528524241929
 21
-349.0360115359438
 31
0.0
  0
LINE
  5
176
330
96E
100
AcDbEntity
  8
DATA
  6
Continuous
 62
     7
100
AcDbLine
 10
55.56673242419289
 20
-348.5972427360819
 30
0.0
 11
51.0528524241929
 21
-347.5954115359439
 31
0.0
  0
LINE
  5
177
330
96E
100
AcDbEntity
  8
DATA
  6
Continuous
 62
     7
100
AcDbLine
 10
55.56673242419289
 20
-347.156642736082
 30
0.0
 11
51.0528524241929
 21
-346.1548115359438
 31
0.0
  0
LINE
  5
178
330
96E
100
AcDbEntity
  8
DATA
  6
Continuous
 62
     7
100
AcDbLine
 10
55.56673242419289
 20
-345.7160427360819
 30
0.0
 11
51.0528524241929
 21
-344.7142115359439
 31
0.0
  0
LINE
  5
179
330
96E
100
AcDbEntity
  8
DATA
  6
Continuous
 62
     7
100
AcDbLine
 10
55.56673242419289
 20
-344.275442736082
 30
0.0
 11
51.0528524241929
 21
-343.273611535944
 31
0.0
  0
LINE
  5
17A
330
96E
100
AcDbEntity
  8
DATA
  6
Continuous
 62
     7
100
AcDbLine
 10
55.56673242419289
 20
-342.8348427360818
 30
0.0
 11
51.0528524241929
 21
-341.8330115359441
 31
0.0
  0
LINE
  5
17B
330
96E
100
AcDbEntity
  8
DATA
  6
Continuous
 62
     7
100
AcDbLine
 10
55.56673242419289
 20
-341.3942427360819
 30
0.0
 11
51.0528524241929
 21
-340.392411535944
 31
0.0
  0
LINE
  5
17C
330
96E
100
AcDbEntity
  8
DATA
  6
Continuous
 62
     7
100
AcDbLine
 10
55.56673242419289
 20
-339.9536427360818
 30
0.0
 11
51.0528524241929
 21
-338.9518115359438
 31
0.0
  0
LINE
  5
17D
330
96E
100
AcDbEntity
  8
DATA
  6
Continuous
 62
     7
100
AcDbLine
 10
55.56673242419289
 20
-338.5130427360819
 30
0.0
 11
51.0528524241929
 21
-337.511211535944
 31
0.0
  0
LINE
  5
17E
330
96E
100
AcDbEntity
  8
DATA
  6
Continuous
 62
     7
100
AcDbLine
 10
55.56673242419289
 20
-337.072442736082
 30
0.0
 11
51.0528524241929
 21
-336.0706115359438
 31
0.0
  0
LINE
  5
17F
330
96E
100
AcDbEntity
  8
DATA
  6
Continuous
 62
     7
100
AcDbLine
 10
20.28023650217051
 20
-354.3596427360818
 30
0.0
 11
20.28023650217051
 21
-335.6864515359437
 31
0.0
  0
LINE
  5
180
330
96E
100
AcDbEntity
  8
DATA
  6
Continuous
 62
     7
100
AcDbLine
 10
20.28023650217051
 20
-332.6945717303106
 30
0.0
 11
20.28023650217051
 21
-330.3496427360818
 31
0.0
  0
LINE
  5
181
330
96E
100
AcDbEntity
  8
DATA
  6
Continuous
 62
     7
100
AcDbLine
 10
24.79411650217071
 20
-330.3496427360818
 30
0.0
 11
24.79411650217071
 21
-332.6945717303106
 31
0.0
  0
LINE
  5
182
330
96E
100
AcDbEntity
  8
DATA
  6
Continuous
 62
     7
100
AcDbLine
 10
24.79411650217071
 20
-335.6864515359437
 30
0.0
 11
24.79411650217071
 21
-354.3596427360818
 31
0.0
  0
LINE
  5
183
330
96E
100
AcDbEntity
  8
DATA
  6
Continuous
 62
     7
100
AcDbLine
 10
20.28023650217051
 20
-354.3596427360818
 30
0.0
 11
24.79411650217071
 21
-354.3596427360818
 31
0.0
  0
LINE
  5
184
330
96E
100
AcDbEntity
  8
DATA
  6
Continuous
 62
     7
100
AcDbLine
 10
18.93567650217051
 20
-329.197162736082
 30
0.0
 11
18.93567650217051
 21
-326.1304715359429
 31
0.0
  0
LINE
  5
185
330
96E
100
AcDbEntity
  8
DATA
  6
Continuous
 62
     7
100
AcDbLine
 10
26.13867650217071
 20
-326.1304715359429
 30
0.0
 11
26.13867650217071
 21
-329.197162736082
 31
0.0
  0
ARC
  5
186
330
96E
100
AcDbEntity
  8
DATA
  6
Continuous
 62
     7
100
AcDbCircle
 10
22.53717650217049
 20
-336.9665119332954
 30
0.0
 40
11.41886919721176
100
AcDbArc
 50
71.61509687495925
 51
108.3849031250396
  0
LINE
  5
187
330
96E
100
AcDbEntity
  8
DATA
  6
Continuous
 62
     7
100
AcDbLine
 10
24.79411650217071
 20
-354.3596427360818
 30
0.0
 11
20.28023650217051
 21
-353.357811535944
 31
0.0
  0
LINE
  5
188
330
96E
100
AcDbEntity
  8
DATA
  6
Continuous
 62
     7
100
AcDbLine
 10
24.79411650217071
 20
-352.9190427360819
 30
0.0
 11
20.28023650217051
 21
-351.9172115359438
 31
0.0
  0
LINE
  5
189
330
96E
100
AcDbEntity
  8
DATA
  6
Continuous
 62
     7
100
AcDbLine
 10
24.79411650217071
 20
-351.4784427360817
 30
0.0
 11
20.28023650217051
 21
-350.476611535944
 31
0.0
  0
LINE
  5
18A
330
96E
100
AcDbEntity
  8
DATA
  6
Continuous
 62
     7
100
AcDbLine
 10
24.79411650217071
 20
-350.0378427360821
 30
0.0
 11
20.28023650217051
 21
-349.0360115359438
 31
0.0
  0
LINE
  5
18B
330
96E
100
AcDbEntity
  8
DATA
  6
Continuous
 62
     7
100
AcDbLine
 10
24.79411650217071
 20
-348.5972427360819
 30
0.0
 11
20.28023650217051
 21
-347.5954115359439
 31
0.0
  0
LINE
  5
18C
330
96E
100
AcDbEntity
  8
DATA
  6
Continuous
 62
     7
100
AcDbLine
 10
24.79411650217071
 20
-347.156642736082
 30
0.0
 11
20.28023650217051
 21
-346.1548115359438
 31
0.0
  0
LINE
  5
18D
330
96E
100
AcDbEntity
  8
DATA
  6
Continuous
 62
     7
100
AcDbLine
 10
24.79411650217071
 20
-345.7160427360819
 30
0.0
 11
20.28023650217051
 21
-344.7142115359439
 31
0.0
  0
LINE
  5
18E
330
96E
100
AcDbEntity
  8
DATA
  6
Continuous
 62
     7
100
AcDbLine
 10
24.79411650217071
 20
-344.275442736082
 30
0.0
 11
20.28023650217051
 21
-343.273611535944
 31
0.0
  0
LINE
  5
18F
330
96E
100
AcDbEntity
  8
DATA
  6
Continuous
 62
     7
100
AcDbLine
 10
24.79411650217071
 20
-342.8348427360818
 30
0.0
 11
20.28023650217051
 21
-341.8330115359441
 31
0.0
  0
LINE
  5
190
330
96E
100
AcDbEntity
  8
DATA
  6
Continuous
 62
     7
100
AcDbLine
 10
24.79411650217071
 20
-341.3942427360819
 30
0.0
 11
20.28023650217051
 21
-340.392411535944
 31
0.0
  0
LINE
  5
191
330
96E
100
AcDbEntity
  8
DATA
  6
Continuous
 62
     7
100
AcDbLine
 10
24.79411650217071
 20
-339.9536427360818
 30
0.0
 11
20.28023650217051
 21
-338.9518115359438
 31
0.0
  0
LINE
  5
192
330
96E
100
AcDbEntity
  8
DATA
  6
Continuous
 62
     7
100
AcDbLine
 10
24.79411650217071
 20
-338.5130427360819
 30
0.0
 11
20.28023650217051
 21
-337.511211535944
 31
0.0
  0
LINE
  5
193
330
96E
100
AcDbEntity
  8
DATA
  6
Continuous
 62
     7
100
AcDbLine
 10
24.79411650217071
 20
-337.072442736082
 30
0.0
 11
20.28023650217051
 21
-336.0706115359438
 31
0.0
  0
ARC
  5
194
330
96E
100
AcDbEntity
  8
DATA
  6
Continuous
 62
     7
100
AcDbCircle
 10
37.91928992278781
 20
-327.9290351135543
 30
0.0
 40
13.1378723782595
100
AcDbArc
 50
9.290297278536879
 51
170.7019359326001
  0
LINE
  5
195
330
96E
100
AcDbEntity
  8
DATA
  6
Continuous
 62
     7
100
AcDbLine
 10
77.5
 20
-338.8457188952722
 30
0.0
 11
78.84839880159211
 21
-338.0672204841981
 31
0.0
  0
LINE
  5
196
330
96E
100
AcDbEntity
  8
DATA
  6
Continuous
 62
     7
100
AcDbLine
 10
-2.5
 20
-361.1542811047272
 30
0.0
 11
-3.848398801591428
 21
-361.9327795158011
 31
0.0
  0
ARC
  5
197
330
96E
100
AcDbEntity
  8
DATA
  6
Continuous
 62
     7
100
AcDbCircle
 10
-5.5
 20
-355.9581286820208
 30
0.0
 40
6.0
100
AcDbArc
 50
300.0
 51
0.0
  0
ARC
  5
198
330
96E
100
AcDbEntity
  8
DATA
  6
Continuous
 62
     7
100
AcDbCircle
 10
80.5
 20
-344.0418713179788
 30
0.0
 40
6.0
100
AcDbArc
 50
120.0
 51
180.0
  0
ARC
  5
199
330
96E
100
AcDbEntity
  8
DATA
  6
Continuous
 62
     7
100
AcDbCircle
 10
75.84839880159234
 20
-332.8710680614914
 30
0.0
 40
5.999999999999886
100
AcDbArc
 50
299.9999999999981
 51
24.0686989804521
  0
ARC
  5
19A
330
96E
100
AcDbEntity
  8
DATA
  6
Continuous
 62
     7
100
AcDbCircle
 10
-0.8483988015909744
 20
-367.1289319385085
 30
0.0
 40
6.000000000000867
100
AcDbArc
 50
120.0000000000002
 51
204.0686989804429
  0
ARC
  5
19B
330
96E
100
AcDbEntity
  8
DATA
  6
Continuous
 62
     7
100
AcDbCircle
 10
10.5
 20
-323.2605160857578
 30
0.0
 40
9.999999999999868
100
AcDbArc
 50
135.2777539752108
 51
180.0
  0
ARC
  5
19C
330
96E
100
AcDbEntity
  8
DATA
  6
Continuous
 62
     7
100
AcDbCircle
 10
64.5
 20
-376.7394839142417
 30
0.0
 40
10.00000000000003
100
AcDbArc
 50
315.2777539752118
 51
0.0
  0
CIRCLE
  5
19D
330
96E
100
AcDbEntity
  8
DATA
  6
Continuous
 62
     7
100
AcDbCircle
 10
79.70000000000003
 20
-349.9999999999998
 30
0.0
 40
3.950000000000045
  0
CIRCLE
  5
19E
330
96E
100
AcDbEntity
  8
DATA
  6
Continuous
 62
     7
100
AcDbCircle
 10
79.70000000000003
 20
-349.9999999999998
 30
0.0
 40
1.25
  0
ARC
  5
19F
330
96E
100
AcDbEntity
  8
DATA
  6
Continuous
 62
     7
100
AcDbCircle
 10
79.70000000000003
 20
-349.9999999999998
 30
0.0
 40
7.499999999999995
100
AcDbArc
 50
42.47139502765411
 51
133.8945537636675
  0
ARC
  5
1A0
330
96E
100
AcDbEntity
  8
DATA
  6
Continuous
 62
     7
100
AcDbCircle
 10
79.70000000000003
 20
-349.9999999999998
 30
0.0
 40
7.500000000000003
100
AcDbArc
 50
226.1054462363324
 51
233.4322341899865
  0
ARC
  5
1A1
330
96E
100
AcDbEntity
  8
DATA
  6
Continuous
 62
     7
100
AcDbCircle
 10
79.70000000000003
 20
-349.9999999999998
 30
0.0
 40
7.49999999999998
100
AcDbArc
 50
250.3134427492988
 51
277.23257683055
  0
ARC
  5
1A2
330
96E
100
AcDbEntity
  8
DATA
  6
Continuous
 62
     7
100
AcDbCircle
 10
79.70000000000003
 20
-349.9999999999998
 30
0.0
 40
7.499999999999972
100
AcDbArc
 50
293.5563099610498
 51
317.5286049723459
  0
LINE
  5
1A3
330
96E
100
AcDbEntity
  8
DATA
  6
Continuous
 62
     7
100
AcDbLine
 10
74.63025135472183
 20
-367.4999999999998
 30
0.0
 11
82.1405439497062
 21
-367.4999999999998
 31
0.0
  0
LINE
  5
1A4
330
96E
100
AcDbEntity
  8
DATA
  6
Continuous
 62
     7
100
AcDbLine
 10
74.63025135472183
 20
-367.4999999999998
 30
0.0
 11
75.23170159005985
 21
-356.0236458486504
 31
0.0
  0
LINE
  5
1A5
330
96E
100
AcDbEntity
  8
DATA
  6
Continuous
 62
     7
100
AcDbLine
 10
82.69737618143881
 20
-356.8750080741791
 30
0.0
 11
82.1405439497064
 21
-367.4999999999998
 31
0.0
  0
LINE
  5
1A6
330
96E
100
AcDbEntity
  8
DATA
  6
Continuous
 62
     7
100
AcDbLine
 10
77.17344229172339
 20
-357.0616220619592
 30
0.0
 11
76.58755933347947
 21
-367.4999999999998
 31
0.0
  0
LINE
  5
1A7
330
96E
100
AcDbEntity
  8
DATA
  6
Continuous
 62
     7
100
AcDbLine
 10
80.64422977148252
 20
-357.4403245992251
 30
0.0
 11
80.11406940591587
 21
-367.4999999999998
 31
0.0
  0
CIRCLE
  5
1A8
330
96E
100
AcDbEntity
  8
DATA
  6
Continuous
 62
     7
100
AcDbCircle
 10
-4.609246126009793
 20
-349.9319779059368
 30
0.0
 40
3.950000000000045
  0
CIRCLE
  5
1A9
330
96E
100
AcDbEntity
  8
DATA
  6
Continuous
 62
     7
100
AcDbCircle
 10
-4.609246126009793
 20
-349.9319779059368
 30
0.0
 40
1.25
  0
ARC
  5
1AA
330
96E
100
AcDbEntity
  8
DATA
  6
Continuous
 62
     7
100
AcDbCircle
 10
-4.609246126009793
 20
-349.9319779059368
 30
0.0
 40
7.500000000000697
100
AcDbArc
 50
221.2035083185247
 51
312.9400549700674
  0
ARC
  5
1AB
330
96E
100
AcDbEntity
  8
DATA
  6
Continuous
 62
     7
100
AcDbCircle
 10
-4.609246126009793
 20
-349.9319779059368
 30
0.0
 40
7.500000000000487
100
AcDbArc
 50
47.0599450299317
 51
53.4322341899896
  0
ARC
  5
1AC
330
96E
100
AcDbEntity
  8
DATA
  6
Continuous
 62
     7
100
AcDbCircle
 10
-4.609246126009793
 20
-349.9319779059368
 30
0.0
 40
7.500000000000676
100
AcDbArc
 50
70.3134427493007
 51
97.23257683054926
  0
ARC
  5
1AD
330
96E
100
AcDbEntity
  8
DATA
  6
Continuous
 62
     7
100
AcDbCircle
 10
-4.609246126009793
 20
-349.9319779059368
 30
0.0
 40
7.500000000000651
100
AcDbArc
 50
113.5563099610476
 51
138.6113838545249
  0
LINE
  5
1AE
330
96E
100
AcDbEntity
  8
DATA
  6
Continuous
 62
     7
100
AcDbLine
 10
0.4605025192684026
 20
-332.4319779059361
 30
0.0
 11
-7.049790075715919
 21
-332.4319779059361
 31
0.0
  0
LINE
  5
1AF
330
96E
100
AcDbEntity
  8
DATA
  6
Continuous
 62
     7
100
AcDbLine
 10
0.4605025192684026
 20
-332.4319779059361
 30
0.0
 11
-0.1409477160696042
 21
-343.9083320572855
 31
0.0
  0
LINE
  5
1B0
330
96E
100
AcDbEntity
  8
DATA
  6
Continuous
 62
     7
100
AcDbLine
 10
-7.606622307448559
 20
-343.0569698317568
 30
0.0
 11
-7.049790075716146
 21
-332.4319779059361
 31
0.0
  0
LINE
  5
1B1
330
96E
100
AcDbEntity
  8
DATA
  6
Continuous
 62
     7
100
AcDbLine
 10
-2.082688417733152
 20
-342.8703558439766
 30
0.0
 11
-1.496805459489223
 21
-332.4319779059361
 31
0.0
  0
LINE
  5
1B2
330
96E
100
AcDbEntity
  8
DATA
  6
Continuous
 62
     7
100
AcDbLine
 10
-5.553475897492262
 20
-342.4916533067108
 30
0.0
 11
-5.023315531925617
 21
-332.4319779059361
 31
0.0
  0
LINE
  5
1B3
330
96E
100
AcDbEntity
  8
DATA
  6
Continuous
 62
     7
100
AcDbLine
 10
0.5
 20
-340.3599171330018
 30
0.0
 11
20.28023650217051
 21
-349.061507872086
 31
0.0
  0
LINE
  5
1B4
330
96E
100
AcDbEntity
  8
DATA
  6
Continuous
 62
     7
100
AcDbLine
 10
71.40534437593169
 20
-371.5521269888086
 30
0.0
 11
74.5
 21
-372.9135074109332
 31
0.0
  0
LWPOLYLINE
  5
1B5
330
96E
100
AcDbEntity
  8
DATA
  6
Continuous
 62
     7
100
AcDbPolyline
 90
        4
 70
     0
 43
0.0
 10
68.60000000000013
 20
-373.3828155030443
 10
68.60000000000013
 20
-383.373577529762
 10
55.60000000000014
 20
-383.373577529762
 10
55.60000000000014
 20
-365.1158397815974
  0
CIRCLE
  5
1BC
330
96E
100
AcDbEntity
  8
DATA
  6
Continuous
 62
     7
100
AcDbCircle
 10
62.10000000000015
 20
-377.373577529762
 30
0.0
 40
3.099999999999908
  0
CIRCLE
  5
1BD
330
96E
100
AcDbEntity
  8
DATA
  6
Continuous
 62
     7
100
AcDbCircle
 10
62.10000000000015
 20
-377.373577529762
 30
0.0
 40
1.355130605446473
  0
ARC
  5
1BE
330
96E
100
AcDbEntity
  8
DATA
  6
Continuous
 62
     7
100
AcDbCircle
 10
70.60000000000013
 20
-373.3828155030443
 30
0.0
 40
1.999999999999881
100
AcDbArc
 50
66.25466351367342
 51
180.0000000000016
  0
LINE
  5
1BF
330
96E
100
AcDbEntity
  8
DATA
  6
Continuous
 62
     7
100
AcDbLine
 10
54.99966441994865
 20
-364.1991782565909
 30
0.0
 11
24.79411650217071
 21
-351.0295595276901
 31
0.0
  0
ARC
  5
1C0
330
96E
100
AcDbEntity
  8
DATA
  6
Continuous
 62
     7
100
AcDbCircle
 10
54.60000000000015
 20
-365.1158397815974
 30
0.0
 40
1.0
100
AcDbArc
 50
0.0
 51
66.44279857305696
  0
ARC
  5
1C1
330
96E
100
AcDbEntity
  8
DATA
  6
Continuous
 62
     7
100
AcDbCircle
 10
35.73598991097424
 20
-364.0840300191175
 30
0.0
 40
65.99999999999768
100
AcDbArc
 50
80.68959772928529
 51
85.35495043068422
  0
ARC
  5
1C2
330
96E
100
AcDbEntity
  8
DATA
  6
Continuous
 62
     7
100
AcDbCircle
 10
40.9593695536937
 20
-299.7958794382537
 30
0.0
 40
1.499999999999161
100
AcDbArc
 50
85.35495043065484
 51
176.687530554964
  0
ARC
  5
1C3
330
96E
100
AcDbEntity
  8
DATA
  6
Continuous
 62
     7
100
AcDbCircle
 10
46.17099250262458
 20
-300.4337297769974
 30
0.0
 40
1.499999999999347
100
AcDbArc
 50
349.357017605006
 51
80.68959772931457
  0
ARC
  5
1C4
330
96E
100
AcDbEntity
  8
DATA
  6
Continuous
 62
     7
100
AcDbCircle
 10
-249.9999999999992
 20
25.00000000000085
 30
0.0
 40
50.49999999999936
100
AcDbArc
 50
85.70742603232964
 51
79.60752704282182
  0
LINE
  5
1C5
330
96E
100
AcDbEntity
  8
DATA
  6
Continuous
 62
     7
100
AcDbLine
 10
-178.0
 20
45.00000000000023
 30
0.0
 11
-178.0
 21
5.000000000000227
 31
0.0
  0
LINE
  5
1C6
330
96E
100
AcDbEntity
  8
DATA
  6
Continuous
 62
     7
100
AcDbLine
 10
-322.0
 20
10.00000000000023
 30
0.0
 11
-322.0
 21
40.00000000000023
 31
0.0
  0
ARC
  5
1C7
330
96E
100
AcDbEntity
  8
DATA
  6
Continuous
 62
     7
100
AcDbCircle
 10
-250.0
 20
25.00000000000023
 30
0.0
 40
62.99999999999982
100
AcDbArc
 50
198.5094049815364
 51
341.4905950184636
  0
ARC
  5
1C8
330
96E
100
AcDbEntity
  8
DATA
  6
Continuous
 62
     7
100
AcDbCircle
 10
-250.0
 20
25.00000000000023
 30
0.0
 40
63.00000000000022
100
AcDbArc
 50
18.50940498153624
 51
73.37064801010878
  0
ARC
  5
1C9
330
96E
100
AcDbEntity
  8
DATA
  6
Continuous
 62
     7
100
AcDbCircle
 10
-250.0
 20
25.00000000000023
 30
0.0
 40
63.00000000000004
100
AcDbArc
 50
77.84568838627326
 51
161.4905950184635
  0
LINE
  5
1CA
330
96E
100
AcDbEntity
  8
DATA
  6
Continuous
 62
     7
100
AcDbLine
 10
-231.9707061235565
 20
85.36509390630381
 30
0.0
 11
-241.3116820027908
 21
76.0241180270695
 31
0.0
  0
LINE
  5
1CB
330
96E
100
AcDbEntity
  8
DATA
  6
Continuous
 62
     7
100
AcDbLine
 10
-246.2201011431605
 20
75.35833957381902
 30
0.0
 11
-236.3383953330149
 21
85.24004538396452
 31
0.0
  0
ARC
  5
1CC
330
96E
100
AcDbEntity
  8
DATA
  6
Continuous
 62
     7
100
AcDbCircle
 10
-236.9040807579643
 20
85.80573080891381
 30
0.0
 40
0.8000000000001591
100
AcDbArc
 50
315.0000000000028
 51
77.84568838627085
  0
ARC
  5
1CD
330
96E
100
AcDbEntity
  8
DATA
  6
Continuous
 62
     7
100
AcDbCircle
 10
-240.7459965778416
 20
75.45843260212024
 30
0.0
 40
0.7999999999999582
100
AcDbArc
 50
134.9999999999942
 51
259.6075270428258
  0
LINE
  5
1CE
330
96E
100
AcDbEntity
  8
DATA
  6
Continuous
 62
     7
100
AcDbLine
 10
-318.0
 20
5.000000000000227
 30
0.0
 11
-318.0
 21
45.00000000000023
 31
0.0
  0
LINE
  5
1CF
330
96E
100
AcDbEntity
  8
DATA
  6
Continuous
 62
     7
100
AcDbLine
 10
-182.0
 20
45.00000000000023
 30
0.0
 11
-182.0
 21
5.000000000000227
 31
0.0
  0
LINE
  5
1D0
330
96E
100
AcDbEntity
  8
DATA
  6
Continuous
 62
     7
100
AcDbLine
 10
-318.0
 20
100.0
 30
0.0
 11
-182.0
 21
100.0
 31
0.0
  0
LINE
  5
1D1
330
96E
100
AcDbEntity
  8
DATA
  6
Continuous
 62
     7
100
AcDbLine
 10
-322.0
 20
103.0
 30
0.0
 11
-322.0
 21
127.0
 31
0.0
  0
LINE
  5
1D2
330
96E
100
AcDbEntity
  8
DATA
  6
Continuous
 62
     7
100
AcDbLine
 10
-178.0
 20
103.0
 30
0.0
 11
-178.0
 21
127.0
 31
0.0
  0
LINE
  5
1D3
330
96E
100
AcDbEntity
  8
DATA
  6
Continuous
 62
     7
100
AcDbLine
 10
-317.0
 20
101.0
 30
0.0
 11
-183.0
 21
101.0
 31
0.0
  0
LINE
  5
1D4
330
96E
100
AcDbEntity
  8
DATA
  6
Continuous
 62
     7
100
AcDbLine
 10
-318.0
 20
102.0
 30
0.0
 11
-318.0
 21
127.0
 31
0.0
  0
LINE
  5
1D5
330
96E
100
AcDbEntity
  8
DATA
  6
Continuous
 62
     7
100
AcDbLine
 10
-182.0
 20
102.0
 30
0.0
 11
-182.0
 21
127.0
 31
0.0
  0
LINE
  5
1D6
330
96E
100
AcDbEntity
  8
DATA
  6
Continuous
 62
     7
100
AcDbLine
 10
-321.0
 20
128.0
 30
0.0
 11
-319.0
 21
128.0
 31
0.0
  0
LINE
  5
1D7
330
96E
100
AcDbEntity
  8
DATA
  6
Continuous
 62
     7
100
AcDbLine
 10
-181.0
 20
128.0
 30
0.0
 11
-179.0
 21
128.0
 31
0.0
  0
LINE
  5
1D8
330
96E
100
AcDbEntity
  8
DATA
  6
Continuous
 62
     7
100
AcDbLine
 10
-319.0
 20
101.0
 30
0.0
 11
-319.0
 21
126.0
 31
0.0
  0
LINE
  5
1D9
330
96E
100
AcDbEntity
  8
DATA
  6
Continuous
 62
     7
100
AcDbLine
 10
-321.0
 20
103.0
 30
0.0
 11
-321.0
 21
126.0
 31
0.0
  0
LINE
  5
1DA
330
96E
100
AcDbEntity
  8
DATA
  6
Continuous
 62
     7
100
AcDbLine
 10
-321.0
 20
103.0
 30
0.0
 11
-322.0
 21
103.0
 31
0.0
  0
LINE
  5
1DB
330
96E
100
AcDbEntity
  8
DATA
  6
Continuous
 62
     7
100
AcDbLine
 10
-181.0
 20
101.0
 30
0.0
 11
-181.0
 21
126.0
 31
0.0
  0
LINE
  5
1DC
330
96E
100
AcDbEntity
  8
DATA
  6
Continuous
 62
     7
100
AcDbLine
 10
-179.0
 20
103.0
 30
0.0
 11
-179.0
 21
126.0
 31
0.0
  0
LINE
  5
1DD
330
96E
100
AcDbEntity
  8
DATA
  6
Continuous
 62
     7
100
AcDbLine
 10
-179.0
 20
103.0
 30
0.0
 11
-178.0
 21
103.0
 31
0.0
  0
ARC
  5
1DE
330
96E
100
AcDbEntity
  8
DATA
  6
Continuous
 62
     7
100
AcDbCircle
 10
-321.0
 20
127.0
 30
0.0
 40
1.0
100
AcDbArc
 50
90.0
 51
180.0
  0
ARC
  5
1DF
330
96E
100
AcDbEntity
  8
DATA
  6
Continuous
 62
     7
100
AcDbCircle
 10
-319.0
 20
127.0
 30
0.0
 40
1.0
100
AcDbArc
 50
0.0
 51
90.0
  0
ARC
  5
1E0
330
96E
100
AcDbEntity
  8
DATA
  6
Continuous
 62
     7
100
AcDbCircle
 10
-320.0
 20
126.0
 30
0.0
 40
1.0
100
AcDbArc
 50
90.0
 51
180.0
  0
ARC
  5
1E1
330
96E
100
AcDbEntity
  8
DATA
  6
Continuous
 62
     7
100
AcDbCircle
 10
-320.0
 20
126.0
 30
0.0
 40
1.0
100
AcDbArc
 50
0.0
 51
90.0
  0
ARC
  5
1E2
330
96E
100
AcDbEntity
  8
DATA
  6
Continuous
 62
     7
100
AcDbCircle
 10
-317.0
 20
102.0
 30
0.0
 40
1.0
100
AcDbArc
 50
180.0
 51
270.0
  0
ARC
  5
1E3
330
96E
100
AcDbEntity
  8
DATA
  6
Continuous
 62
     7
100
AcDbCircle
 10
-318.0
 20
101.0
 30
0.0
 40
1.0
100
AcDbArc
 50
180.0
 51
270.0
  0
ARC
  5
1E4
330
96E
100
AcDbEntity
  8
DATA
  6
Continuous
 62
     7
100
AcDbCircle
 10
-183.0
 20
102.0
 30
0.0
 40
1.0
100
AcDbArc
 50
270.0
 51
0.0
  0
ARC
  5
1E5
330
96E
100
AcDbEntity
  8
DATA
  6
Continuous
 62
     7
100
AcDbCircle
 10
-182.0
 20
101.0
 30
0.0
 40
1.0
100
AcDbArc
 50
270.0
 51
0.0
  0
ARC
  5
1E6
330
96E
100
AcDbEntity
  8
DATA
  6
Continuous
 62
     7
100
AcDbCircle
 10
-181.0
 20
127.0
 30
0.0
 40
1.0
100
AcDbArc
 50
90.0
 51
180.0
  0
ARC
  5
1E7
330
96E
100
AcDbEntity
  8
DATA
  6
Continuous
 62
     7
100
AcDbCircle
 10
-179.0
 20
127.0
 30
0.0
 40
1.0
100
AcDbArc
 50
0.0
 51
90.0
  0
ARC
  5
1E8
330
96E
100
AcDbEntity
  8
DATA
  6
Continuous
 62
     7
100
AcDbCircle
 10
-180.0
 20
126.0
 30
0.0
 40
1.0
100
AcDbArc
 50
90.0
 51
180.0
  0
ARC
  5
1E9
330
96E
100
AcDbEntity
  8
DATA
  6
Continuous
 62
     7
100
AcDbCircle
 10
-180.0
 20
126.0
 30
0.0
 40
1.0
100
AcDbArc
 50
0.0
 51
90.0
  0
LINE
  5
1EA
330
96E
100
AcDbEntity
  8
DATA
  6
Continuous
 62
     7
100
AcDbLine
 10
-100.0
 20
-37.99999999999978
 30
0.0
 11
-100.0
 21
88.00000000000022
 31
0.0
  0
LINE
  5
1EB
330
96E
100
AcDbEntity
  8
DATA
  6
Continuous
 62
     7
100
AcDbLine
 10
-101.0
 20
-37.99999999999978
 30
0.0
 11
-101.0
 21
5.000000000000227
 31
0.0
  0
LINE
  5
1EC
330
96E
100
AcDbEntity
  8
DATA
  6
Continuous
 62
     7
100
AcDbLine
 10
-101.0
 20
45.00000000000023
 30
0.0
 11
-101.0
 21
88.00000000000022
 31
0.0
  0
LINE
  5
1ED
330
96E
100
AcDbEntity
  8
DATA
  6
Continuous
 62
     7
100
AcDbLine
 10
-101.0
 20
-37.99999999999978
 30
0.0
 11
-100.0
 21
-37.99999999999978
 31
0.0
  0
LINE
  5
1EE
330
96E
100
AcDbEntity
  8
DATA
  6
Continuous
 62
     7
100
AcDbLine
 10
-101.0
 20
88.00000000000022
 30
0.0
 11
-100.0
 21
88.00000000000022
 31
0.0
  0
LINE
  5
1EF
330
96E
100
AcDbEntity
  8
DATA
  6
Continuous
 62
     7
100
AcDbLine
 10
-128.0
 20
5.000000000000227
 30
0.0
 11
-128.0
 21
45.00000000000023
 31
0.0
  0
LINE
  5
1F0
330
96E
100
AcDbEntity
  8
DATA
  6
Continuous
 62
     7
100
AcDbLine
 10
-103.0
 20
5.000000000000227
 30
0.0
 11
-103.0
 21
45.00000000000023
 31
0.0
  0
ARC
  5
1F1
330
96E
100
AcDbEntity
  8
DATA
  6
Continuous
 62
     7
100
AcDbCircle
 10
-114.0999999999999
 20
32.59983333333355
 30
0.0
 40
1.90016666666653
100
AcDbArc
 50
0.7588734028383511
 51
179.2411265971618
  0
ARC
  5
1F2
330
96E
100
AcDbEntity
  8
DATA
  6
Continuous
 62
     7
100
AcDbCircle
 10
-114.0999999999999
 20
17.4001666666669
 30
0.0
 40
1.900166666666757
100
AcDbArc
 50
180.7588734028382
 51
359.2411265971617
  0
LINE
  5
1F3
330
96E
100
AcDbEntity
  8
DATA
  6
Continuous
 62
     7
100
AcDbLine
 10
-116.0
 20
17.37500000000023
 30
0.0
 11
-116.0
 21
32.62499999999573
 31
0.0
  0
LINE
  5
1F4
330
96E
100
AcDbEntity
  8
DATA
  6
Continuous
 62
     7
100
AcDbLine
 10
-112.2
 20
32.62500000000023
 30
0.0
 11
-112.2
 21
17.37499999999568
 31
0.0
  0
LINE
  5
1F5
330
96E
100
AcDbEntity
  8
DATA
  6
Continuous
 62
     7
100
AcDbLine
 10
-322.0
 20
45.00000000000023
 30
0.0
 11
-322.0
 21
5.000000000000227
 31
0.0
  0
LINE
  5
1F6
330
96E
100
AcDbEntity
  8
DATA
  6
Continuous
 62
     7
100
AcDbLine
 10
-322.0
 20
45.00000000000023
 30
0.0
 11
-309.7411081249752
 21
45.00000000000023
 31
0.0
  0
LINE
  5
1F7
330
96E
100
AcDbEntity
  8
DATA
  6
Continuous
 62
     7
100
AcDbLine
 10
-322.0
 20
5.000000000000227
 30
0.0
 11
-309.7411081249752
 21
5.000000000000227
 31
0.0
  0
LINE
  5
1F8
330
96E
100
AcDbEntity
  8
DATA
  6
Continuous
 62
     7
100
AcDbLine
 10
-178.0
 20
45.00000000000023
 30
0.0
 11
-190.2588918750246
 21
45.00000000000023
 31
0.0
  0
LINE
  5
1F9
330
96E
100
AcDbEntity
  8
DATA
  6
Continuous
 62
     7
100
AcDbLine
 10
-178.0
 20
5.000000000000227
 30
0.0
 11
-190.2588918750246
 21
5.000000000000227
 31
0.0
  0
LINE
  5
1FA
330
96E
100
AcDbEntity
  8
DATA
  6
Continuous
 62
     7
100
AcDbLine
 10
-128.0
 20
45.00000000000023
 30
0.0
 11
-101.0
 21
45.00000000000023
 31
0.0
  0
LINE
  5
1FB
330
96E
100
AcDbEntity
  8
DATA
  6
Continuous
 62
     7
100
AcDbLine
 10
-128.0
 20
5.000000000000227
 30
0.0
 11
-101.0
 21
5.000000000000227
 31
0.0
  0
CIRCLE
  5
1FC
330
96E
100
AcDbEntity
  8
DATA
  6
Continuous
 62
     7
100
AcDbCircle
 10
37.5
 20
-349.9999999999998
 30
0.0
 40
63.5
  0
LINE
  5
1FD
330
96E
100
AcDbEntity
  8
DATA
  6
Continuous
 62
     7
100
AcDbLine
 10
39.46187565597416
 20
-299.7092074918669
 30
0.0
 11
39.20000000000005
 21
-301.0294986752226
 31
0.0
  0
LINE
  5
1FE
330
96E
100
AcDbEntity
  8
DATA
  6
Continuous
 62
     7
100
AcDbLine
 10
47.64518811536163
 20
-300.7107627991895
 30
0.0
 11
47.37000000000011
 21
-301.9899999999997
 31
0.0
  0
LINE
  5
1FF
330
96E
100
AcDbEntity
  8
DATA
  6
Continuous
 62
     7
100
AcDbLine
 10
308.3333500000008
 20
25.00004999999999
 30
0.0
 11
308.3333500000008
 21
75.0
 31
0.0
  0
LINE
  5
200
330
96E
100
AcDbEntity
  8
DATA
  6
Continuous
 62
     7
100
AcDbLine
 10
341.6666499999992
 20
75.0
 30
0.0
 11
341.6666499999992
 21
25.00004999999999
 31
0.0
  0
LINE
  5
201
330
96E
100
AcDbEntity
  8
DATA
  6
Continuous
 62
     7
100
AcDbLine
 10
311.6666800000005
 20
65.00000999999992
 30
0.0
 11
321.6666700000003
 21
65.00000999999992
 31
0.0
  0
LINE
  5
202
330
96E
100
AcDbEntity
  8
DATA
  6
Continuous
 62
     7
100
AcDbLine
 10
328.3333299999999
 20
65.00000999999992
 30
0.0
 11
338.3333199999995
 21
65.00000999999992
 31
0.0
  0
LINE
  5
203
330
96E
100
AcDbEntity
  8
DATA
  6
Continuous
 62
     7
100
AcDbLine
 10
311.6666800000005
 20
54.33335399999958
 30
0.0
 11
321.6666700000003
 21
54.33335399999958
 31
0.0
  0
LINE
  5
204
330
96E
100
AcDbEntity
  8
DATA
  6
Continuous
 62
     7
100
AcDbLine
 10
328.3333299999999
 20
54.33335399999958
 30
0.0
 11
338.3333199999995
 21
54.33335399999958
 31
0.0
  0
LINE
  5
205
330
96E
100
AcDbEntity
  8
DATA
  6
Continuous
 62
     7
100
AcDbLine
 10
311.6666800000005
 20
54.33335399999958
 30
0.0
 11
311.6666800000005
 21
65.00000999999992
 31
0.0
  0
LINE
  5
206
330
96E
100
AcDbEntity
  8
DATA
  6
Continuous
 62
     7
100
AcDbLine
 10
338.3333199999995
 20
54.33335399999958
 30
0.0
 11
338.3333199999995
 21
65.00000999999992
 31
0.0
  0
LINE
  5
207
330
96E
100
AcDbEntity
  8
DATA
  6
Continuous
 62
     7
100
AcDbLine
 10
328.3333299999999
 20
65.00000999999992
 30
0.0
 11
328.3333299999999
 21
54.33335399999958
 31
0.0
  0
LINE
  5
208
330
96E
100
AcDbEntity
  8
DATA
  6
Continuous
 62
     7
100
AcDbLine
 10
321.6666700000003
 20
65.00000999999992
 30
0.0
 11
321.6666700000003
 21
54.33335399999958
 31
0.0
  0
TEXT
  5
209
330
96E
100
AcDbEntity
  8
DATA
 62
     7
100
AcDbText
 10
329.0200482013809
 20
31.27555501232965
 30
0.0
 40
9.501563849121094
  1
2
 41
0.7
 11
329.0200482013809
 21
40.77711886145074
 31
0.0
100
AcDbText
 73
     3
  0
TEXT
  5
20A
330
96E
100
AcDbEntity
  8
DATA
 62
     7
100
AcDbText
 10
312.3860463461463
 20
31.25712406497154
 30
0.0
 40
9.501563849121094
  1
1
 41
0.7
 11
312.3860463461463
 21
40.75868791409263
 31
0.0
100
AcDbText
 73
     3
  0
LINE
  5
20B
330
96E
100
AcDbEntity
  8
DATA
  6
Continuous
 62
     7
100
AcDbLine
 10
303.3333550000009
 20
25.00004999999999
 30
0.0
 11
303.3333550000009
 21
75.0
 31
0.0
  0
LINE
  5
20C
330
96E
100
AcDbEntity
  8
DATA
  6
Continuous
 62
     7
100
AcDbLine
 10
346.6666449999991
 20
75.0
 30
0.0
 11
346.6666449999991
 21
25.00004999999999
 31
0.0
  0
LINE
  5
20D
330
96E
100
AcDbEntity
  8
DATA
  6
Continuous
 62
     7
100
AcDbLine
 10
346.6666449999991
 20
75.0
 30
0.0
 11
303.3333550000009
 21
75.0
 31
0.0
  0
LINE
  5
20E
330
96E
100
AcDbEntity
  8
DATA
  6
Continuous
 62
     7
100
AcDbLine
 10
303.3333550000009
 20
25.00004999999999
 30
0.0
 11
346.6666449999991
 21
25.00004999999999
 31
0.0
  0
LINE
  5
20F
330
96E
100
AcDbEntity
  8
DATA
  6
Continuous
 62
     7
100
AcDbLine
 10
308.3333500000008
 20
-61.52275323225553
 30
0.0
 11
308.3333500000008
 21
-11.52280323225525
 31
0.0
  0
LINE
  5
210
330
96E
100
AcDbEntity
  8
DATA
  6
Continuous
 62
     7
100
AcDbLine
 10
341.6666499999992
 20
-11.52280323225525
 30
0.0
 11
341.6666499999992
 21
-61.52275323225553
 31
0.0
  0
LINE
  5
211
330
96E
100
AcDbEntity
  8
DATA
  6
Continuous
 62
     7
100
AcDbLine
 10
311.6666800000005
 20
-21.5227932322554
 30
0.0
 11
321.6666700000003
 21
-21.5227932322554
 31
0.0
  0
LINE
  5
212
330
96E
100
AcDbEntity
  8
DATA
  6
Continuous
 62
     7
100
AcDbLine
 10
328.3333299999999
 20
-21.5227932322554
 30
0.0
 11
338.3333199999995
 21
-21.5227932322554
 31
0.0
  0
LINE
  5
213
330
96E
100
AcDbEntity
  8
DATA
  6
Continuous
 62
     7
100
AcDbLine
 10
311.6666800000005
 20
-32.18944923225573
 30
0.0
 11
321.6666700000003
 21
-32.18944923225573
 31
0.0
  0
LINE
  5
214
330
96E
100
AcDbEntity
  8
DATA
  6
Continuous
 62
     7
100
AcDbLine
 10
328.3333299999999
 20
-32.18944923225573
 30
0.0
 11
338.3333199999995
 21
-32.18944923225573
 31
0.0
  0
LINE
  5
215
330
96E
100
AcDbEntity
  8
DATA
  6
Continuous
 62
     7
100
AcDbLine
 10
311.6666800000005
 20
-32.18944923225573
 30
0.0
 11
311.6666800000005
 21
-21.5227932322554
 31
0.0
  0
LINE
  5
216
330
96E
100
AcDbEntity
  8
DATA
  6
Continuous
 62
     7
100
AcDbLine
 10
338.3333199999995
 20
-32.18944923225573
 30
0.0
 11
338.3333199999995
 21
-21.5227932322554
 31
0.0
  0
LINE
  5
217
330
96E
100
AcDbEntity
  8
DATA
  6
Continuous
 62
     7
100
AcDbLine
 10
328.3333299999999
 20
-21.5227932322554
 30
0.0
 11
328.3333299999999
 21
-32.18944923225573
 31
0.0
  0
LINE
  5
218
330
96E
100
AcDbEntity
  8
DATA
  6
Continuous
 62
     7
100
AcDbLine
 10
321.6666700000003
 20
-21.5227932322554
 30
0.0
 11
321.6666700000003
 21
-32.18944923225573
 31
0.0
  0
TEXT
  5
219
330
96E
100
AcDbEntity
  8
DATA
 62
     7
100
AcDbText
 10
329.2794184286986
 20
-54.16153549543624
 30
0.0
 40
9.501563849121094
  1
B
 41
0.7
 11
329.2794184286986
 21
-44.65997164631514
 31
0.0
100
AcDbText
 73
     3
  0
TEXT
  5
21A
330
96E
100
AcDbEntity
  8
DATA
 62
     7
100
AcDbText
 10
312.6454165734638
 20
-54.17996644279437
 30
0.0
 40
9.501563849121094
  1
A
 41
0.7
 11
312.6454165734638
 21
-44.67840259367327
 31
0.0
100
AcDbText
 73
     3
  0
LINE
  5
21B
330
96E
100
AcDbEntity
  8
DATA
  6
Continuous
 62
     7
100
AcDbLine
 10
303.3333550000009
 20
-61.52275323225553
 30
0.0
 11
303.3333550000009
 21
-11.52280323225525
 31
0.0
  0
LINE
  5
21C
330
96E
100
AcDbEntity
  8
DATA
  6
Continuous
 62
     7
100
AcDbLine
 10
346.6666449999991
 20
-11.52280323225525
 30
0.0
 11
346.6666449999991
 21
-61.52275323225553
 31
0.0
  0
LINE
  5
21D
330
96E
100
AcDbEntity
  8
DATA
  6
Continuous
 62
     7
100
AcDbLine
 10
346.6666449999991
 20
-11.52280323225525
 30
0.0
 11
303.3333550000009
 21
-11.52280323225525
 31
0.0
  0
LINE
  5
21E
330
96E
100
AcDbEntity
  8
DATA
  6
Continuous
 62
     7
100
AcDbLine
 10
303.3333550000009
 20
-61.52275323225553
 30
0.0
 11
346.6666449999991
 21
-61.52275323225553
 31
0.0
  0
TEXT
  5
21F
330
96E
100
AcDbEntity
  8
DATA
 62
     7
100
AcDbText
 10
298.0788755063658
 20
-131.7868381076389
 30
0.0
 40
13.57367621527778
  1
端子拡大図
 41
0.7
 72
     1
 11
325.0
 21
-125.0
 31
0.0
100
AcDbText
 73
     2
  0
TEXT
  5
220
330
96E
100
AcDbEntity
  8
DATA
 62
     7
100
AcDbText
 10
319.127586077678
 20
-72.1798833260102
 30
0.0
 40
9.501563849121094
  1
+
 50
90.0
 41
0.7
 11
309.6260222285569
 21
-72.1798833260102
 31
0.0
100
AcDbText
 73
     3
  0
TEXT
  5
221
330
96E
100
AcDbEntity
  8
DATA
 62
     7
100
AcDbText
 10
310.5626147451525
 20
-85.54826398776624
 30
0.0
 40
9.501563849121094
  1
Loop 
 41
0.7
 11
310.5626147451525
 21
-76.04670013864515
 31
0.0
100
AcDbText
 73
     3
  0
TEXT
  5
222
330
96E
100
AcDbEntity
  8
DATA
 62
     7
100
AcDbText
 10
310.5626147451525
 20
-97.89547386276625
 30
0.0
 40
9.501563849121094
  1
Thru
 41
0.7
 11
310.5626147451525
 21
-88.39391001364516
 31
0.0
100
AcDbText
 73
     3
  0
TEXT
  5
223
330
96E
100
AcDbEntity
  8
DATA
 62
     7
100
AcDbText
 10
328.9605913227049
 20
-73.49128453695816
 30
0.0
 40
9.501563849121094
  1
-
 41
0.7
 11
328.9605913227049
 21
-63.98972068783706
 31
0.0
100
AcDbText
 73
     3
  0
TEXT
  5
224
330
96E
100
AcDbEntity
  8
DATA
 62
     7
100
AcDbText
 10
319.5320676337294
 20
14.21120747912184
 30
0.0
 40
9.501563849121094
  1
+
 50
90.0
 41
0.7
 11
310.0305037846083
 21
14.21120747912184
 31
0.0
100
AcDbText
 73
     3
  0
TEXT
  5
225
330
96E
100
AcDbEntity
  8
DATA
 62
     7
100
AcDbText
 10
307.4977980127321
 20
-0.2459022835325495
 30
0.0
 40
9.501563849121094
  1
IN
 41
0.7
 11
307.4977980127321
 21
9.255661565588544
 31
0.0
100
AcDbText
 73
     3
  0
TEXT
  5
226
330
96E
100
AcDbEntity
  8
DATA
 62
     7
100
AcDbText
 10
329.2864822776435
 20
12.98403651433399
 30
0.0
 40
9.501563849121094
  1
-
 41
0.7
 11
329.2864822776435
 21
22.48560036345509
 31
0.0
100
AcDbText
 73
     3
  0
TEXT
  5
227
330
96E
100
AcDbEntity
  8
DATA
 62
     7
100
AcDbText
 10
325.6561284436516
 20
-0.2376511281776938
 30
0.0
 40
9.501563849121094
  1
IN
 41
0.7
 11
325.6561284436516
 21
9.2639127209434
 31
0.0
100
AcDbText
 73
     3
  0
LINE
  5
228
330
96E
100
AcDbEntity
  8
DATA
  6
Continuous
 62
     7
100
AcDbLine
 10
275.0
 20
-137.5
 30
0.0
 11
375.0
 21
-137.5
 31
0.0
  0
LINE
  5
229
330
96E
100
AcDbEntity
  8
DATA
  6
Continuous
 62
     7
100
AcDbLine
 10
-250.0
 20
-112.5
 30
0.0
 11
-100.0
 21
-112.5
 31
0.0
  0
TEXT
  5
22A
330
96E
100
AcDbEntity
  8
DATA
 62
     7
100
AcDbText
 10
250.0
 20
-580.2182899999998
 30
0.0
 40
12.21630859375
  1
Control 42C
 41
0.7
 11
250.0
 21
-568.0019814062498
 31
0.0
100
AcDbText
 73
     3
  0
TEXT
  5
22B
330
96E
100
AcDbEntity
  8
DATA
 62
     7
100
AcDbText
 10
250.0
 20
-543.9682899999999
 30
0.0
 40
12.21630859375
  1
JBL PROFESSIONAL
 41
0.7
 11
250.0
 21
-531.7519814062499
 31
0.0
100
AcDbText
 73
     3
  0
TEXT
  5
22C
330
96E
100
AcDbEntity
  8
DATA
 62
     7
100
AcDbText
 10
237.5
 20
-561.353065
 30
0.0
 40
8.144205729166666
  1
天井埋込用サテライト・スピ－カ－
 41
0.7
 11
237.5
 21
-553.2088592708333
 31
0.0
100
AcDbText
 73
     3
  0
ARC
  5
22D
330
96E
100
AcDbEntity
  8
DATA
  6
Continuous
 62
     7
100
AcDbCircle
 10
113.9395582985448
 20
-349.9999999999997
 30
0.0
 40
267.8326724558282
100
AcDbArc
 50
170.2190307988514
 51
189.7809692011486
  0
ARC
  5
22E
330
96E
100
AcDbEntity
  8
DATA
  6
Continuous
 62
     7
100
AcDbCircle
 10
-212.0143692483853
 20
-387.5
 30
0.0
 40
61.38402642689836
100
AcDbArc
 50
142.3448052588534
 51
181.4320882196274
  0
ARC
  5
22F
330
96E
100
AcDbEntity
  8
DATA
  6
Continuous
 62
     7
100
AcDbCircle
 10
-309.2100214222996
 20
-312.4999999999996
 30
0.0
 40
61.38402642689834
100
AcDbArc
 50
322.3448052588534
 51
7.460168038953383
  0
LINE
  5
230
330
96E
100
AcDbEntity
  8
DATA
  6
Continuous
 62
     7
100
AcDbLine
 10
-253.1840405900873
 20
-349.3150369004375
 30
0.0
 11
-252.5115313650624
 21
-347.7126383766124
 31
0.0
  0
LINE
  5
231
330
96E
100
AcDbEntity
  8
DATA
  6
Continuous
 62
     7
100
AcDbLine
 10
-253.1840405900873
 20
-349.3150369004375
 30
0.0
 11
-253.8482472320877
 21
-347.7126383766124
 31
0.0
  0
LINE
  5
232
330
96E
100
AcDbEntity
  8
DATA
  6
Continuous
 62
     7
100
AcDbLine
 10
-248.0862546127376
 20
-352.2126383761622
 30
0.0
 11
-248.0862546127376
 21
-347.7126383766124
 31
0.0
  0
LINE
  5
233
330
96E
100
AcDbEntity
  8
DATA
  6
Continuous
 62
     7
100
AcDbLine
 10
-247.2227859781376
 20
-347.7126383766124
 30
0.0
 11
-247.2227859781376
 21
-351.5235239850874
 31
0.0
  0
LINE
  5
234
330
96E
100
AcDbEntity
  8
DATA
  6
Continuous
 62
     7
100
AcDbLine
 10
-252.1960332101123
 20
-347.7126383766124
 30
0.0
 11
-252.1960332101123
 21
-351.5235239850874
 31
0.0
  0
LINE
  5
235
330
96E
100
AcDbEntity
  8
DATA
  6
Continuous
 62
     7
100
AcDbLine
 10
-251.3657749076121
 20
-347.7126383766124
 30
0.0
 11
-251.3657749076121
 21
-351.5235239850874
 31
0.0
  0
LINE
  5
236
330
96E
100
AcDbEntity
  8
DATA
  6
Continuous
 62
     7
100
AcDbLine
 10
-250.9340405903124
 20
-347.7126383766124
 30
0.0
 11
-250.9340405903124
 21
-352.2126383761622
 31
0.0
  0
LINE
  5
237
330
96E
100
AcDbEntity
  8
DATA
  6
Continuous
 62
     7
100
AcDbLine
 10
-250.1785055350376
 20
-348.1360701108872
 30
0.0
 11
-250.1785055350376
 21
-349.5807195572372
 31
0.0
  0
LINE
  5
238
330
96E
100
AcDbEntity
  8
DATA
  6
Continuous
 62
     7
100
AcDbLine
 10
-248.5595018451625
 20
-349.4976937269873
 30
0.0
 11
-248.5595018451625
 21
-348.4349630997873
 31
0.0
  0
LINE
  5
239
330
96E
100
AcDbEntity
  8
DATA
  6
Continuous
 62
     7
100
AcDbLine
 10
-249.3565498155624
 20
-348.3353321034875
 30
0.0
 11
-249.3565498155624
 21
-349.3648523985874
 31
0.0
  0
ARC
  5
23A
330
96E
100
AcDbEntity
  8
DATA
  6
Continuous
 62
     7
100
AcDbCircle
 10
-252.3626403134169
 20
-351.0571321954663
 30
0.0
 40
1.160484409478052
100
AcDbArc
 50
264.6909220000097
 51
323.9912580000098
  0
LINE
  5
23B
330
96E
100
AcDbEntity
  8
DATA
  6
Continuous
 62
     7
100
AcDbLine
 10
-252.8270295200125
 20
-350.8011992619123
 30
0.0
 11
-252.8270295200125
 21
-351.5235239850874
 31
0.0
  0
LINE
  5
23C
330
96E
100
AcDbEntity
  8
DATA
  6
Continuous
 62
     7
100
AcDbLine
 10
-252.8270295200125
 20
-350.8011992619123
 30
0.0
 11
-253.5742619922624
 21
-350.8011992619123
 31
0.0
  0
LINE
  5
23D
330
96E
100
AcDbEntity
  8
DATA
  6
Continuous
 62
     7
100
AcDbLine
 10
-253.5742619922624
 20
-350.8011992619123
 30
0.0
 11
-253.5742619922624
 21
-351.5235239850874
 31
0.0
  0
ARC
  5
23E
330
96E
100
AcDbEntity
  8
DATA
  6
Continuous
 62
     7
100
AcDbCircle
 10
-252.5099513835128
 20
-351.5332595939423
 30
0.0
 40
0.3140692804114145
100
AcDbArc
 50
269.7118140000195
 51
1.776303999991796
  0
ARC
  5
23F
330
96E
100
AcDbEntity
  8
DATA
  6
Continuous
 62
     7
100
AcDbCircle
 10
-252.513111346612
 20
-351.5332595939423
 30
0.0
 40
0.3140692804116457
100
AcDbArc
 50
178.2236960000095
 51
270.2881859999803
  0
ARC
  5
240
330
96E
100
AcDbEntity
  8
DATA
  6
Continuous
 62
     7
100
AcDbCircle
 10
-252.577396586458
 20
-351.0571321954663
 30
0.0
 40
1.160484409478064
100
AcDbArc
 50
216.0087419999902
 51
275.3090779999904
  0
ARC
  5
241
330
96E
100
AcDbEntity
  8
DATA
  6
Continuous
 62
     7
100
AcDbCircle
 10
-253.0498152210973
 20
-351.4980840404405
 30
0.0
 40
0.5250628228258561
100
AcDbArc
 50
182.7771389999835
 51
207.3598370000109
  0
CIRCLE
  5
242
330
96E
100
AcDbEntity
  8
DATA
  6
Continuous
 62
     7
100
AcDbCircle
 10
-253.1383763834499
 20
-349.9377306273125
 30
0.0
 40
0.4275830257874987
  0
LINE
  5
243
330
96E
100
AcDbEntity
  8
DATA
  6
Continuous
 62
     7
100
AcDbLine
 10
-245.8362546129621
 20
-352.2126383761622
 30
0.0
 11
-248.0862546127376
 21
-352.2126383761622
 31
0.0
  0
LINE
  5
244
330
96E
100
AcDbEntity
  8
DATA
  6
Continuous
 62
     7
100
AcDbLine
 10
-245.8362546129621
 20
-352.2126383761622
 30
0.0
 11
-245.8362546129621
 21
-350.8011992619123
 31
0.0
  0
LINE
  5
245
330
96E
100
AcDbEntity
  8
DATA
  6
Continuous
 62
     7
100
AcDbLine
 10
-245.8362546129621
 20
-350.8011992619123
 30
0.0
 11
-246.5917896682374
 21
-350.8011992619123
 31
0.0
  0
LINE
  5
246
330
96E
100
AcDbEntity
  8
DATA
  6
Continuous
 62
     7
100
AcDbLine
 10
-246.5917896682374
 20
-350.8011992619123
 30
0.0
 11
-246.5917896682374
 21
-351.5235239850874
 31
0.0
  0
LINE
  5
247
330
96E
100
AcDbEntity
  8
DATA
  6
Continuous
 62
     7
100
AcDbLine
 10
-250.9340405903124
 20
-352.2126383761622
 30
0.0
 11
-249.3482472325375
 21
-352.2126383761622
 31
0.0
  0
LINE
  5
248
330
96E
100
AcDbEntity
  8
DATA
  6
Continuous
 62
     7
100
AcDbLine
 10
-250.1785055350376
 20
-351.7892066418874
 30
0.0
 11
-249.7716789668122
 21
-351.7892066418874
 31
0.0
  0
LINE
  5
249
330
96E
100
AcDbEntity
  8
DATA
  6
Continuous
 62
     7
100
AcDbLine
 10
-250.1785055350376
 20
-351.7892066418874
 30
0.0
 11
-250.1785055350376
 21
-350.0124538745374
 31
0.0
  0
LINE
  5
24A
330
96E
100
AcDbEntity
  8
DATA
  6
Continuous
 62
     7
100
AcDbLine
 10
-250.1785055350376
 20
-350.0124538745374
 30
0.0
 11
-249.7716789668122
 21
-350.0124538745374
 31
0.0
  0
LINE
  5
24B
330
96E
100
AcDbEntity
  8
DATA
  6
Continuous
 62
     7
100
AcDbLine
 10
-249.3565498155624
 20
-351.5899446492874
 30
0.0
 11
-249.3565498155624
 21
-350.2283210331872
 31
0.0
  0
ARC
  5
24C
330
96E
100
AcDbEntity
  8
DATA
  6
Continuous
 62
     7
100
AcDbCircle
 10
-251.8902216787776
 20
-351.4980840404405
 30
0.0
 40
0.5250628228256497
100
AcDbArc
 50
332.6401629999777
 51
357.2228610000153
  0
ARC
  5
24D
330
96E
100
AcDbEntity
  8
DATA
  6
Continuous
 62
     7
100
AcDbCircle
 10
-246.9057078416379
 20
-351.5332595939423
 30
0.0
 40
0.3140692804114145
100
AcDbArc
 50
269.7118140000195
 51
1.776303999991796
  0
ARC
  5
24E
330
96E
100
AcDbEntity
  8
DATA
  6
Continuous
 62
     7
100
AcDbCircle
 10
-246.9088678047372
 20
-351.5332595939423
 30
0.0
 40
0.3140692804116457
100
AcDbArc
 50
178.2236960000095
 51
270.2881859999803
  0
LINE
  5
24F
330
96E
100
AcDbEntity
  8
DATA
  6
Continuous
 62
     7
100
AcDbLine
 10
-248.5595018451625
 20
-351.4903136529872
 30
0.0
 11
-248.5595018451625
 21
-350.3113468634373
 31
0.0
  0
LINE
  5
250
330
96E
100
AcDbEntity
  8
DATA
  6
Continuous
 62
     7
100
AcDbLine
 10
-250.1785055350376
 20
-349.5807195572372
 30
0.0
 11
-249.7716789668122
 21
-349.5807195572372
 31
0.0
  0
ARC
  5
251
330
96E
100
AcDbEntity
  8
DATA
  6
Continuous
 62
     7
100
AcDbCircle
 10
-249.003264114491
 20
-350.3241785055025
 30
0.0
 40
0.4364535054918671
100
AcDbArc
 50
3.867274000009513
 51
88.36168999995098
  0
ARC
  5
252
330
96E
100
AcDbEntity
  8
DATA
  6
Continuous
 62
     7
100
AcDbCircle
 10
-249.0036659595092
 20
-349.4512092251468
 30
0.0
 40
0.4368844095504096
100
AcDbArc
 50
271.6894159999831
 51
356.0783329999814
  0
ARC
  5
253
330
96E
100
AcDbEntity
  8
DATA
  6
Continuous
 62
     7
100
AcDbCircle
 10
-249.4137554428628
 20
-351.3583731548457
 30
0.0
 40
0.8561789667041624
100
AcDbArc
 50
273.831088999976
 51
351.1351589999915
  0
LWPOLYLINE
  5
254
330
96E
100
AcDbEntity
  8
DATA
  6
Continuous
 62
     7
100
AcDbPolyline
 90
      452
 70
   128
 43
0.0
 10
-249.7716789668122
 20
-349.5807195572375
 10
-249.7664371706903
 20
-349.5807195572375
 10
-249.7649399932509
 20
-349.5807015574342
 10
-249.7634444771441
 20
-349.5806811236954
 10
-249.76195062237
 20
-349.580658256021
 10
-249.7604584289285
 20
-349.5806329544111
 10
-249.7589678968197
 20
-349.5806052188655
 10
-249.7574790260435
 20
-349.5805750493844
 10
-249.7559918166
 20
-349.5805424459677
 10
-249.7545062684892
 20
-349.5805074086153
 10
-249.753022381711
 20
-349.5804699373275
 10
-249.7515401562655
 20
-349.5804300321041
 10
-249.7500595921526
 20
-349.5803876929451
 10
-249.7485806893724
 20
-349.5803429198505
 10
-249.7471034479248
 20
-349.5802957128204
 10
-249.74562786781
 20
-349.5802460718547
 10
-249.7441539490277
 20
-349.5801939969534
 10
-249.7426816915781
 20
-349.5801394881165
 10
-249.7412110954612
 20
-349.5800825453441
 10
-249.7397421606769
 20
-349.5800231686361
 10
-249.7382748872253
 20
-349.5799613579924
 10
-249.7368092751064
 20
-349.5798971134132
 10
-249.7353453243201
 20
-349.5798304348986
 10
-249.7338830348665
 20
-349.5797613224483
 10
-249.7324224067455
 20
-349.5796897760623
 10
-249.7309634399571
 20
-349.5796157957408
 10
-249.7295061345014
 20
-349.5795393814838
 10
-249.7280504903784
 20
-349.5794605332912
 10
-249.7265965075881
 20
-349.579379251163
 10
-249.7251441861304
 20
-349.5792955350992
 10
-249.7236935260054
 20
-349.5792093850998
 10
-249.722244527213
 20
-349.5791208011648
 10
-249.7207971897533
 20
-349.5790297832944
 10
-249.7193515136263
 20
-349.5789363314884
 10
-249.7179074988318
 20
-349.5788404457466
 10
-249.7164651453701
 20
-349.5787421260694
 10
-249.715024453241
 20
-349.5786413724566
 10
-249.7135854224445
 20
-349.5785381849082
 10
-249.7121480529808
 20
-349.5784325634242
 10
-249.7107123448497
 20
-349.5783245080048
 10
-249.7092782980512
 20
-349.5782140186496
 10
-249.7078459125854
 20
-349.578101095359
 10
-249.7064151884523
 20
-349.5779857381327
 10
-249.7049861256517
 20
-349.5778679469708
 10
-249.7035587241839
 20
-349.5777477218734
 10
-249.7021329840487
 20
-349.5776250628404
 10
-249.7007089052463
 20
-349.5774999698718
 10
-249.6992864877764
 20
-349.5773724429676
 10
-249.6978657316391
 20
-349.577242482128
 10
-249.6964466368346
 20
-349.5771100873528
 10
-249.6950292033627
 20
-349.576975258642
 10
-249.6936134312234
 20
-349.5768379959955
 10
-249.6921993204169
 20
-349.5766982994135
 10
-249.6907868709429
 20
-349.5765561688959
 10
-249.6893760828017
 20
-349.5764116044427
 10
-249.6879669559931
 20
-349.576264606054
 10
-249.6865594905172
 20
-349.5761151737297
 10
-249.6851536863739
 20
-349.5759633074698
 10
-249.6837495435633
 20
-349.5758090072743
 10
-249.6823470620852
 20
-349.5756522731432
 10
-249.68094624194
 20
-349.5754931050766
 10
-249.6795470831273
 20
-349.5753315030744
 10
-249.6781495856473
 20
-349.5751674671367
 10
-249.6767537495
 20
-349.5750009972634
 10
-249.6753595746853
 20
-349.5748320934544
 10
-249.6739670612033
 20
-349.5746607557099
 10
-249.672575718403
 20
-349.5744868285876
 10
-249.6711850556335
 20
-349.574310156645
 10
-249.6697950728949
 20
-349.574130739882
 10
-249.6684057701871
 20
-349.5739485782991
 10
-249.6670171475102
 20
-349.5737636718957
 10
-249.6656292048641
 20
-349.5735760206721
 10
-249.6642419422489
 20
-349.5733856246283
 10
-249.6628553596644
 20
-349.5731924837643
 10
-249.6614694571109
 20
-349.57299659808
 10
-249.6600842345881
 20
-349.5727979675756
 10
-249.6586996920962
 20
-349.5725965922509
 10
-249.6573158296352
 20
-349.5723924721059
 10
-249.6559326472048
 20
-349.5721856071408
 10
-249.6545501448055
 20
-349.5719759973554
 10
-249.6531683224369
 20
-349.5717636427497
 10
-249.6517871800993
 20
-349.5715485433237
 10
-249.6504067177923
 20
-349.5713306990776
 10
-249.6490269355163
 20
-349.5711101100112
 10
-249.6476478332711
 20
-349.5708867761247
 10
-249.6462694110567
 20
-349.5706606974179
 10
-249.6448916688732
 20
-349.5704318738909
 10
-249.6435146067204
 20
-349.5702003055437
 10
-249.6421382245986
 20
-349.5699659923762
 10
-249.6407625225076
 20
-349.5697289343884
 10
-249.6393875004474
 20
-349.5694891315805
 10
-249.6380131584181
 20
-349.5692465839522
 10
-249.6366394964196
 20
-349.5690012915038
 10
-249.6352665144519
 20
-349.5687532542352
 10
-249.633894212515
 20
-349.5685024721463
 10
-249.632522590609
 20
-349.5682489452372
 10
-249.6311516487338
 20
-349.5679926735078
 10
-249.6297813868896
 20
-349.5677336569583
 10
-249.628411805076
 20
-349.5674718955885
 10
-249.6270429032934
 20
-349.5672073893983
 10
-249.6256746815416
 20
-349.5669401383881
 10
-249.6243071398206
 20
-349.5666701425575
 10
-249.6229402781304
 20
-349.5663974019068
 10
-249.6215740964711
 20
-349.5661219164357
 10
-249.6202085948427
 20
-349.5658436861447
 10
-249.6188437732451
 20
-349.5655627110332
 10
-249.6174796316783
 20
-349.5652789911015
 10
-249.6161161701424
 20
-349.5649925263497
 10
-249.6147533886372
 20
-349.5647033167775
 10
-249.6133912871629
 20
-349.5644113623852
 10
-249.6120298657195
 20
-349.5641166631725
 10
-249.6106691243069
 20
-349.5638192191397
 10
-249.6093090629251
 20
-349.5635190302867
 10
-249.6079496815742
 20
-349.5632160966134
 10
-249.6065909802541
 20
-349.5629104181198
 10
-249.6052329589649
 20
-349.5626019948061
 10
-249.6038756177064
 20
-349.5622908266721
 10
-249.6025189564789
 20
-349.5619769137178
 10
-249.6011629752821
 20
-349.5616602559433
 10
-249.5998076741162
 20
-349.5613408533488
 10
-249.5984530529812
 20
-349.5610187059339
 10
-249.5970991118769
 20
-349.5606938136987
 10
-249.5957458508035
 20
-349.5603661766433
 10
-249.594393269761
 20
-349.5600357947676
 10
-249.5930413687492
 20
-349.5597026680719
 10
-249.5916901477684
 20
-349.5593667965558
 10
-249.5903396068184
 20
-349.5590281802194
 10
-249.5889897458991
 20
-349.558686819063
 10
-249.5876405650108
 20
-349.5583427130862
 10
-249.5862920641532
 20
-349.5579958622892
 10
-249.5849451880023
 20
-349.5576463388117
 10
-249.5836008812337
 20
-349.5572942147931
 10
-249.5822591438474
 20
-349.5569394902336
 10
-249.5809199758435
 20
-349.5565821651333
 10
-249.579583377222
 20
-349.5562222394919
 10
-249.5782493479828
 20
-349.5558597133097
 10
-249.576917888126
 20
-349.5554945865865
 10
-249.5755889976515
 20
-349.5551268593225
 10
-249.5742626765593
 20
-349.5547565315174
 10
-249.5729389248495
 20
-349.5543836031715
 10
-249.5716177425221
 20
-349.5540080742845
 10
-249.570299129577
 20
-349.5536299448567
 10
-249.5689830860142
 20
-349.553249214888
 10
-249.5676696118338
 20
-349.5528658843782
 10
-249.5663587070358
 20
-349.5524799533276
 10
-249.56505037162
 20
-349.552091421736
 10
-249.5637446055866
 20
-349.5517002896035
 10
-249.5624414089357
 20
-349.55130655693
 10
-249.561140781667
 20
-349.5509102237158
 10
-249.5598427237807
 20
-349.5505112899604
 10
-249.5585472352767
 20
-349.5501097556641
 10
-249.5572543161551
 20
-349.549705620827
 10
-249.5559639664158
 20
-349.5492988854489
 10
-249.5546761860589
 20
-349.5488895495298
 10
-249.5533909750843
 20
-349.5484776130699
 10
-249.5521083334921
 20
-349.548063076069
 10
-249.5508282612822
 20
-349.5476459385272
 10
-249.5495507584547
 20
-349.5472262004444
 10
-249.5482758250096
 20
-349.5468038618206
 10
-249.5470034609467
 20
-349.5463789226561
 10
-249.5457336662663
 20
-349.5459513829505
 10
-249.5444664409681
 20
-349.545521242704
 10
-249.5432017850523
 20
-349.5450885019165
 10
-249.5419396985189
 20
-349.5446531605882
 10
-249.5406801813678
 20
-349.5442152187189
 10
-249.539423233599
 20
-349.5437746763086
 10
-249.5381688552126
 20
-349.5433315333575
 10
-249.5369170462086
 20
-349.5428857898653
 10
-249.535667806587
 20
-349.5424374458324
 10
-249.5344211363476
 20
-349.5419865012585
 10
-249.5331770354906
 20
-349.5415329561437
 10
-249.531935504016
 20
-349.5410768104878
 10
-249.5306965419237
 20
-349.5406180642911
 10
-249.5294601492137
 20
-349.5401567175532
 10
-249.5282263258861
 20
-349.5396927702747
 10
-249.5269950719409
 20
-349.5392262224551
 10
-249.525766387378
 20
-349.5387570740946
 10
-249.5245402721975
 20
-349.5382853251931
 10
-249.5233167263992
 20
-349.5378109757508
 10
-249.5220957499834
 20
-349.5373340257676
 10
-249.5208773429498
 20
-349.5368544752433
 10
-249.5196615052988
 20
-349.5363723241782
 10
-249.51844823703
 20
-349.5358875725722
 10
-249.5172375381434
 20
-349.5354002204251
 10
-249.5160294086393
 20
-349.5349102677372
 10
-249.5148238485176
 20
-349.5344177145083
 10
-249.5136208577782
 20
-349.5339225607385
 10
-249.5124204364211
 20
-349.5334248064278
 10
-249.5112225844464
 20
-349.5329244515761
 10
-249.510027301854
 20
-349.5324214961835
 10
-249.508834588644
 20
-349.53191594025
 10
-249.5076444448163
 20
-349.5314077837755
 10
-249.506456870371
 20
-349.5308970267601
 10
-249.505271865308
 20
-349.5303836692037
 10
-249.5040902536673
 20
-349.5298680101083
 10
-249.5029128594884
 20
-349.5293503484758
 10
-249.5017396827714
 20
-349.5288306843062
 10
-249.5005707235165
 20
-349.5283090175993
 10
-249.4994059817235
 20
-349.5277853483554
 10
-249.4982454573924
 20
-349.5272596765743
 10
-249.4970891505233
 20
-349.5267320022561
 10
-249.4959370611161
 20
-349.5262023254007
 10
-249.494789189171
 20
-349.5256706460082
 10
-249.4936455346878
 20
-349.5251369640785
 10
-249.4925060976666
 20
-349.5246012796116
 10
-249.4913708781072
 20
-349.5240635926077
 10
-249.4902398760099
 20
-349.5235239030666
 10
-249.4891130913745
 20
-349.5229822109884
 10
-249.4879905242011
 20
-349.5224385163731
 10
-249.4868721744895
 20
-349.5218928192205
 10
-249.48575804224
 20
-349.5213451195308
 10
-249.4846481274525
 20
-349.5207954173041
 10
-249.4835424301268
 20
-349.52024371254
 10
-249.4824409502631
 20
-349.5196900052389
 10
-249.4813436878615
 20
-349.5191342954007
 10
-249.4802506429217
 20
-349.5185765830253
 10
-249.4791618154439
 20
-349.5180168681127
 10
-249.478077205428
 20
-349.5174551506631
 10
-249.4769968128741
 20
-349.5168914306763
 10
-249.4759206377822
 20
-349.5163257081522
 10
-249.4748486801522
 20
-349.5157579830912
 10
-249.4737809399842
 20
-349.5151882554929
 10
-249.4727174172781
 20
-349.5146165253576
 10
-249.471658112034
 20
-349.5140427926851
 10
-249.4706030242519
 20
-349.5134670574753
 10
-249.4695521539316
 20
-349.5128893197286
 10
-249.4685055010734
 20
-349.5123095794447
 10
-249.4674630656771
 20
-349.5117278366235
 10
-249.4664248477427
 20
-349.5111440912652
 10
-249.4653908472704
 20
-349.5105583433699
 10
-249.4643610642599
 20
-349.5099705929373
 10
-249.4633354987115
 20
-349.5093808399677
 10
-249.4623141506249
 20
-349.5087890844609
 10
-249.4612970200004
 20
-349.5081953264168
 10
-249.4602841068377
 20
-349.5075995658357
 10
-249.4592754111371
 20
-349.5070018027175
 10
-249.4582709328984
 20
-349.506402037062
 10
-249.4572706721216
 20
-349.5058002688696
 10
-249.4562746288068
 20
-349.5051964981399
 10
-249.455282802954
 20
-349.504590724873
 10
-249.4542951945632
 20
-349.5039829490691
 10
-249.4533118036343
 20
-349.503373170728
 10
-249.4523326301673
 20
-349.5027613898497
 10
-249.4513576741623
 20
-349.5021476064343
 10
-249.4503869356192
 20
-349.5015318204817
 10
-249.4494204145381
 20
-349.500914031992
 10
-249.448458110919
 20
-349.5002942409652
 10
-249.4475000247617
 20
-349.4996724474013
 10
-249.4465461560665
 20
-349.4990486513001
 10
-249.4455965048333
 20
-349.4984228526618
 10
-249.4446510710619
 20
-349.4977950514865
 10
-249.4437098547526
 20
-349.497165247774
 10
-249.4427728559052
 20
-349.4965334415242
 10
-249.4418400745197
 20
-349.4958996327373
 10
-249.4409115105962
 20
-349.4952638214134
 10
-249.4399871641346
 20
-349.4946260075523
 10
-249.439067035135
 20
-349.493986191154
 10
-249.4381511235975
 20
-349.4933443722187
 10
-249.4372399015508
 20
-349.4927010047904
 10
-249.4363338410244
 20
-349.492056542914
 10
-249.435432942018
 20
-349.4914109865892
 10
-249.4345372045318
 20
-349.490764335816
 10
-249.4336466285657
 20
-349.4901165905944
 10
-249.4327612141197
 20
-349.4894677509245
 10
-249.4318809611938
 20
-349.4888178168064
 10
-249.4310058697881
 20
-349.4881667882398
 10
-249.4301359399024
 20
-349.4875146652248
 10
-249.4292711715369
 20
-349.4868614477618
 10
-249.4284115646915
 20
-349.4862071358501
 10
-249.4275571193663
 20
-349.4855517294903
 10
-249.4267078355611
 20
-349.4848952286819
 10
-249.4258637132761
 20
-349.4842376334252
 10
-249.4250247525112
 20
-349.4835789437205
 10
-249.4241909532664
 20
-349.4829191595672
 10
-249.4233623155417
 20
-349.4822582809655
 10
-249.4225388393372
 20
-349.4815963079156
 10
-249.4217205246528
 20
-349.4809332404173
 10
-249.4209073714884
 20
-349.4802690784706
 10
-249.4200993798443
 20
-349.4796038220757
 10
-249.4192965497203
 20
-349.4789374712322
 10
-249.4184988811164
 20
-349.4782700259406
 10
-249.4177063740325
 20
-349.4776014862006
 10
-249.4169190284689
 20
-349.4769318520122
 10
-249.4161368444252
 20
-349.4762611233755
 10
-249.4153598219018
 20
-349.4755893002905
 10
-249.4145879608985
 20
-349.4749163827571
 10
-249.4138212614153
 20
-349.4742423707753
 10
-249.4130597234522
 20
-349.4735672643451
 10
-249.4123033470093
 20
-349.4728910634668
 10
-249.4115521320864
 20
-349.47221376814
 10
-249.4108060786837
 20
-349.4715353783649
 10
-249.410065186801
 20
-349.4708558941415
 10
-249.4093294564386
 20
-349.4701753154696
 10
-249.4085988875963
 20
-349.4694936423496
 10
-249.407873480274
 20
-349.468810874781
 10
-249.4071532344719
 20
-349.4681270127643
 10
-249.4064381501899
 20
-349.467442056299
 10
-249.405728227428
 20
-349.4667560053856
 10
-249.4050234661862
 20
-349.4660688600237
 10
-249.4043238664646
 20
-349.4653806202137
 10
-249.4036294282631
 20
-349.464691285955
 10
-249.4029401515817
 20
-349.4640008572482
 10
-249.4022560364204
 20
-349.4633093340931
 10
-249.4015770827793
 20
-349.4626167164895
 10
-249.4009032906583
 20
-349.4619230044375
 10
-249.4002346600574
 20
-349.4612281979373
 10
-249.3995711909766
 20
-349.4605322969887
 10
-249.398912883416
 20
-349.4598353015918
 10
-249.3982597373754
 20
-349.4591372117466
 10
-249.397611752855
 20
-349.4584380274529
 10
-249.3969689298547
 20
-349.457737748711
 10
-249.3963312683745
 20
-349.4570363755208
 10
-249.3956987684144
 20
-349.4563339078821
 10
-249.3950714299745
 20
-349.455630345795
 10
-249.3944492530547
 20
-349.4549256892597
 10
-249.393832237655
 20
-349.4542199382761
 10
-249.3932203837755
 20
-349.4535130928441
 10
-249.392613691416
 20
-349.4528051529637
 10
-249.3920121605766
 20
-349.4520961186351
 10
-249.3914157912574
 20
-349.4513859898579
 10
-249.3908245834584
 20
-349.4506747666325
 10
-249.3902385371794
 20
-349.4499624489589
 10
-249.3896579062508
 20
-349.4492502377171
 10
-249.3890829445032
 20
-349.4485393337872
 10
-249.3885136519361
 20
-349.4478297371693
 10
-249.38795002855
 20
-349.4471214478636
 10
-249.3873920743447
 20
-349.4464144658697
 10
-249.3868397893201
 20
-349.445708791188
 10
-249.3862931734764
 20
-349.4450044238182
 10
-249.3857522268134
 20
-349.4443013637605
 10
-249.3852169493312
 20
-349.4435996110148
 10
-249.3846873410297
 20
-349.4428991655811
 10
-249.3841634019092
 20
-349.4422000274594
 10
-249.3836451319693
 20
-349.4415021966497
 10
-249.3831325312103
 20
-349.4408056731521
 10
-249.3826255996321
 20
-349.4401104569664
 10
-249.3821243372346
 20
-349.4394165480928
 10
-249.381628744018
 20
-349.4387239465313
 10
-249.3811388199821
 20
-349.4380326522817
 10
-249.380654565127
 20
-349.4373426653441
 10
-249.3801759794527
 20
-349.4366539857187
 10
-249.3797030629592
 20
-349.4359666134051
 10
-249.3792358156465
 20
-349.4352805484038
 10
-249.3787742375145
 20
-349.4345957907143
 10
-249.3783183285634
 20
-349.4339123403368
 10
-249.377868088793
 20
-349.4332301972714
 10
-249.3774235182036
 20
-349.4325493615181
 10
-249.3769846167948
 20
-349.4318698330767
 10
-249.3765513845668
 20
-349.4311916119474
 10
-249.3761238215196
 20
-349.43051469813
 10
-249.3757019276532
 20
-349.4298390916247
 10
-249.3752857029676
 20
-349.4291647924314
 10
-249.3748751474628
 20
-349.4284918005501
 10
-249.3744702611388
 20
-349.4278201159809
 10
-249.3740710439955
 20
-349.4271497387237
 10
-249.373677496033
 20
-349.4264806687785
 10
-249.3732896172514
 20
-349.4258129061453
 10
-249.3729074076505
 20
-349.4251464508242
 10
-249.3725308672305
 20
-349.4244813028151
 10
-249.3721599959912
 20
-349.4238174621178
 10
-249.3717947939327
 20
-349.4231549287328
 10
-249.3714352610549
 20
-349.4224937026597
 10
-249.371081397358
 20
-349.4218337838985
 10
-249.370733202842
 20
-349.4211751724496
 10
-249.3703906775066
 20
-349.4205178683125
 10
-249.3700538213521
 20
-349.4198618714877
 10
-249.3697226343783
 20
-349.4192071819746
 10
-249.3693971165853
 20
-349.4185537997736
 10
-249.3690772679732
 20
-349.4179017248847
 10
-249.3687630885418
 20
-349.4172509573076
 10
-249.3684545782912
 20
-349.4166014970428
 10
-249.3681517372214
 20
-349.4159533440899
 10
-249.3678545653324
 20
-349.415306498449
 10
-249.3675630626241
 20
-349.4146609601202
 10
-249.3672772290967
 20
-349.4140167291035
 10
-249.36699706475
 20
-349.4133738053986
 10
-249.3667225695842
 20
-349.4127321890058
 10
-249.3664537435992
 20
-349.4120918799251
 10
-249.3661905867949
 20
-349.4114528781563
 10
-249.3659330991714
 20
-349.4108151836996
 10
-249.3656812807287
 20
-349.4101787965549
 10
-249.3654351314668
 20
-349.4095437167223
 10
-249.3651946513856
 20
-349.4089099442017
 10
-249.3649598404853
 20
-349.408277478993
 10
-249.3647306987658
 20
-349.4076463210963
 10
-249.364507226227
 20
-349.4070164705118
 10
-249.3642880930199
 20
-349.4063874763045
 10
-249.3640719692952
 20
-349.4057588875398
 10
-249.3638588550528
 20
-349.4051307042178
 10
-249.363648750293
 20
-349.4045029263384
 10
-249.3634416550155
 20
-349.4038755539016
 10
-249.3632375692205
 20
-349.4032485869074
 10
-249.3630364929078
 20
-349.4026220253558
 10
-249.3628384260776
 20
-349.4019958692469
 10
-249.3626433687299
 20
-349.4013701185805
 10
-249.3624513208645
 20
-349.4007447733568
 10
-249.3622622824815
 20
-349.4001198335757
 10
-249.362076253581
 20
-349.3994952992372
 10
-249.3618932341629
 20
-349.3988711703413
 10
-249.3617132242273
 20
-349.3982474468881
 10
-249.361536223774
 20
-349.3976241288775
 10
-249.3613622328032
 20
-349.3970012163096
 10
-249.3611912513147
 20
-349.3963787091842
 10
-249.3610232793087
 20
-349.3957566075014
 10
-249.3608583167852
 20
-349.3951349112612
 10
-249.360696363744
 20
-349.3945136204637
 10
-249.3605374201853
 20
-349.3938927351088
 10
-249.3603814861089
 20
-349.3932722551965
 10
-249.3602285615151
 20
-349.3926521807268
 10
-249.3600786464036
 20
-349.3920325116998
 10
-249.3599317407745
 20
-349.3914132481155
 10
-249.3597878446279
 20
-349.3907943899736
 10
-249.3596469579637
 20
-349.3901759372744
 10
-249.3595090807819
 20
-349.3895578900178
 10
-249.3593742130825
 20
-349.3889402482039
 10
-249.3592423548656
 20
-349.3883230118325
 10
-249.359113506131
 20
-349.3877061809038
 10
-249.3589876668789
 20
-349.3870897554177
 10
-249.3588648371092
 20
-349.3864737353742
 10
-249.358745016822
 20
-349.3858581207732
 10
-249.3586282060171
 20
-349.3852429116151
 10
-249.3585144046947
 20
-349.3846281078994
 10
-249.3584036128546
 20
-349.3840137096264
 10
-249.3582958304971
 20
-349.383399716796
 10
-249.3581910576219
 20
-349.3827861294082
 10
-249.3580892942292
 20
-349.382172947463
 10
-249.3579905403188
 20
-349.3815601709605
 10
-249.3578947958909
 20
-349.3809477999006
 10
-249.3578020609454
 20
-349.3803358342833
 10
-249.3577123354824
 20
-349.3797242741087
 10
-249.3576256195017
 20
-349.3791131193765
 10
-249.3575419130034
 20
-349.3785023700871
 10
-249.3574612159877
 20
-349.3778920262403
 10
-249.3573835284542
 20
-349.3772820878361
 10
-249.3573088504033
 20
-349.3766725548745
 10
-249.3572371818347
 20
-349.3760634273555
 10
-249.3571685227486
 20
-349.3754547052791
 10
-249.3571028731449
 20
-349.3748463886454
 10
-249.3570402330236
 20
-349.3742384774543
 10
-249.3569806023848
 20
-349.3736309717058
 10
-249.3569239812283
 20
-349.3730238714
 10
-249.3568703695542
 20
-349.3724171765367
 10
-249.3568197673626
 20
-349.3718108871161
 10
-249.3567721746535
 20
-349.3712050031381
 10
-249.3567275914267
 20
-349.3705995246027
 10
-249.3566860176824
 20
-349.3699944515099
 10
-249.3566474534204
 20
-349.3693897838598
 10
-249.3566118986409
 20
-349.3687855216522
 10
-249.3565793533438
 20
-349.3681816648873
 10
-249.3565498175292
 20
-349.3675782135649
 10
-249.3565498175292
 20
-349.3675782135649
 10
-249.3565498155624
 20
-349.3648524795812
  0
LWPOLYLINE
  5
41A
330
96E
100
AcDbEntity
  8
DATA
  6
Continuous
 62
     7
100
AcDbPolyline
 90
      388
 70
   128
 43
0.0
 10
-249.3565498155624
 20
-350.2283211141809
 10
-249.3565498144983
 20
-350.2268459569684
 10
-249.3565934752224
 20
-350.2253820758244
 10
-249.3566481279816
 20
-350.2239280355627
 10
-249.3567137727757
 20
-350.2224838361834
 10
-249.3567904096049
 20
-350.2210494776862
 10
-249.3568780384689
 20
-350.2196249600715
 10
-249.356976659368
 20
-350.2182102833389
 10
-249.357086272302
 20
-350.2168054474888
 10
-249.357206877271
 20
-350.2154104525209
 10
-249.357338474275
 20
-350.2140252984353
 10
-249.357481063314
 20
-350.212649985232
 10
-249.357634644388
 20
-350.2112845129109
 10
-249.3577992174969
 20
-350.2099288814723
 10
-249.3579747826408
 20
-350.2085830909158
 10
-249.3581613398197
 20
-350.2072471412416
 10
-249.3583588890336
 20
-350.2059210324497
 10
-249.3585674302825
 20
-350.2046047645403
 10
-249.3587869635663
 20
-350.203298337513
 10
-249.3590174888851
 20
-350.202001751368
 10
-249.3592590062389
 20
-350.2007150061053
 10
-249.3595115156276
 20
-350.1994381017249
 10
-249.3597750170513
 20
-350.1981710382269
 10
-249.3600495105101
 20
-350.196913815611
 10
-249.3603349960038
 20
-350.1956664338777
 10
-249.3606314735324
 20
-350.1944288930264
 10
-249.3609389430961
 20
-350.1932011930577
 10
-249.3612574046947
 20
-350.1919833339709
 10
-249.3615868583284
 20
-350.1907753157666
 10
-249.3619273039969
 20
-350.1895771384446
 10
-249.3622787417005
 20
-350.1883888020048
 10
-249.3626411714391
 20
-350.1872103064473
 10
-249.3630145932125
 20
-350.1860416517723
 10
-249.3633990070211
 20
-350.1848828379794
 10
-249.3637944128646
 20
-350.1837338650689
 10
-249.364200810743
 20
-350.1825947330407
 10
-249.3646182006565
 20
-350.1814654418948
 10
-249.3650465826048
 20
-350.1803459916311
 10
-249.3654859565883
 20
-350.1792363822497
 10
-249.3659363226067
 20
-350.1781366137505
 10
-249.36639768066
 20
-350.1770466861338
 10
-249.3668700307484
 20
-350.1759665993993
 10
-249.3673533728717
 20
-350.1748963535472
 10
-249.36784770703
 20
-350.1738359485772
 10
-249.3683530332233
 20
-350.1727853844897
 10
-249.3688693514515
 20
-350.1717446612844
 10
-249.3693966617148
 20
-350.1707137789614
 10
-249.3699349640129
 20
-350.1696927375207
 10
-249.3704842583461
 20
-350.1686815369623
 10
-249.3710445447143
 20
-350.1676801772861
 10
-249.3716158231173
 20
-350.1666886584922
 10
-249.3721980935556
 20
-350.1657069805807
 10
-249.3727913560286
 20
-350.1647351435515
 10
-249.3733956105367
 20
-350.1637731474045
 10
-249.3740108570797
 20
-350.1628209921399
 10
-249.3746370956578
 20
-350.1618786777575
 10
-249.3752743262708
 20
-350.1609462042575
 10
-249.3759225489188
 20
-350.1600235716398
 10
-249.3765817636017
 20
-350.1591107799043
 10
-249.3772519703197
 20
-350.158207829051
 10
-249.3779331690726
 20
-350.1573147190802
 10
-249.3786253598605
 20
-350.1564314499916
 10
-249.3793285426835
 20
-350.1555580217853
 10
-249.3800427175413
 20
-350.1546944344612
 10
-249.3807678844341
 20
-350.1538406880196
 10
-249.381504043362
 20
-350.1529967824601
 10
-249.3822474140885
 20
-350.1521579875058
 10
-249.3829942163778
 20
-350.151319572879
 10
-249.3837444502298
 20
-350.1504815385801
 10
-249.3844981156444
 20
-350.1496438846089
 10
-249.3852552126216
 20
-350.1488066109653
 10
-249.3860157411616
 20
-350.1479697176494
 10
-249.3867797012641
 20
-350.1471332046614
 10
-249.3875470929294
 20
-350.1462970720009
 10
-249.3883179161572
 20
-350.1454613196683
 10
-249.3890921709478
 20
-350.1446259476633
 10
-249.3898698573009
 20
-350.1437909559861
 10
-249.3906509752168
 20
-350.1429563446365
 10
-249.3914355246952
 20
-350.1421221136147
 10
-249.3922235057364
 20
-350.1412882629206
 10
-249.3930149183402
 20
-350.1404547925542
 10
-249.3938097625067
 20
-350.1396217025156
 10
-249.3946080382357
 20
-350.1387889928047
 10
-249.3954097455276
 20
-350.1379566634215
 10
-249.396214884382
 20
-350.137124714366
 10
-249.3970234547991
 20
-350.1362931456382
 10
-249.3978354567788
 20
-350.1354619572381
 10
-249.3986508903212
 20
-350.1346311491657
 10
-249.3994697554263
 20
-350.1338007214211
 10
-249.400292052094
 20
-350.1329706740041
 10
-249.4011177803243
 20
-350.1321410069149
 10
-249.4019469401173
 20
-350.1313117201534
 10
-249.402779531473
 20
-350.1304828137197
 10
-249.4036155543913
 20
-350.1296542876136
 10
-249.4044550088723
 20
-350.1288261418352
 10
-249.4052978949159
 20
-350.1279983763847
 10
-249.4061442125221
 20
-350.1271709912617
 10
-249.4069939616911
 20
-350.1263439864665
 10
-249.4078471424227
 20
-350.1255173619991
 10
-249.4087037547169
 20
-350.1246911178593
 10
-249.4095637985738
 20
-350.1238652540472
 10
-249.4104272739935
 20
-350.1230397705628
 10
-249.4112941809756
 20
-350.1222146674062
 10
-249.4121645195205
 20
-350.1213899445773
 10
-249.413038289628
 20
-350.1205656020762
 10
-249.4139154912982
 20
-350.1197416399027
 10
-249.414796124531
 20
-350.1189180580569
 10
-249.4156801893265
 20
-350.1180948565389
 10
-249.4165676856846
 20
-350.1172720353486
 10
-249.4174586136054
 20
-350.1164495944861
 10
-249.4183529730889
 20
-350.1156275339512
 10
-249.419250764135
 20
-350.114805853744
 10
-249.4201519867437
 20
-350.1139845538645
 10
-249.4210566409152
 20
-350.1131636343127
 10
-249.4219647266493
 20
-350.1123430950887
 10
-249.422876243946
 20
-350.1115229361924
 10
-249.4237911928053
 20
-350.1107031576237
 10
-249.4247095732274
 20
-350.1098837593829
 10
-249.4256313852121
 20
-350.1090647414697
 10
-249.4265566287594
 20
-350.1082461038842
 10
-249.4274853038695
 20
-350.1074278466266
 10
-249.4284174105421
 20
-350.1066099696966
 10
-249.4293529487774
 20
-350.1057924730943
 10
-249.4302919185753
 20
-350.1049753568198
 10
-249.431234319936
 20
-350.1041586208728
 10
-249.4321801528593
 20
-350.1033422652537
 10
-249.4331294173453
 20
-350.1025262899624
 10
-249.4340821133938
 20
-350.1017106949987
 10
-249.4350382410051
 20
-350.1008954803626
 10
-249.4359978001789
 20
-350.1000806460544
 10
-249.4369659775352
 20
-350.0992674821413
 10
-249.4379479596935
 20
-350.0984572786912
 10
-249.4389437466539
 20
-350.097650035704
 10
-249.4399533384164
 20
-350.0968457531795
 10
-249.4409767349809
 20
-350.0960444311178
 10
-249.4420139363475
 20
-350.0952460695189
 10
-249.4430649425162
 20
-350.0944506683829
 10
-249.4441297534869
 20
-350.0936582277097
 10
-249.4452083692597
 20
-350.0928687474994
 10
-249.4463007898346
 20
-350.0920822277519
 10
-249.4474070152115
 20
-350.0912986684672
 10
-249.4485270453905
 20
-350.0905180696454
 10
-249.4496608803716
 20
-350.0897404312864
 10
-249.4508085201548
 20
-350.0889657533902
 10
-249.4519699647399
 20
-350.0881940359568
 10
-249.4531452141272
 20
-350.0874252789863
 10
-249.4543342683166
 20
-350.0866594824786
 10
-249.455537127308
 20
-350.0858966464337
 10
-249.4567537911014
 20
-350.0851367708516
 10
-249.4579842596969
 20
-350.0843798557325
 10
-249.4592285330945
 20
-350.0836259010762
 10
-249.4604866112943
 20
-350.0828749068827
 10
-249.461758494296
 20
-350.082126873152
 10
-249.4630441820998
 20
-350.0813817998842
 10
-249.4643436747058
 20
-350.0806396870792
 10
-249.4656569721137
 20
-350.079900534737
 10
-249.4669840743237
 20
-350.0791643428576
 10
-249.4683249813358
 20
-350.0784311114411
 10
-249.46967969315
 20
-350.0777008404873
 10
-249.4710482097662
 20
-350.0769735299965
 10
-249.4724305311845
 20
-350.0762491799685
 10
-249.4738266574048
 20
-350.0755277904032
 10
-249.4752365884273
 20
-350.0748093613009
 10
-249.4766603242517
 20
-350.0740938926614
 10
-249.4780978648784
 20
-350.0733813844848
 10
-249.479549210307
 20
-350.0726718367708
 10
-249.4810143605377
 20
-350.0719652495198
 10
-249.4824933155705
 20
-350.0712616227316
 10
-249.4839860754053
 20
-350.0705609564061
 10
-249.4854926400422
 20
-350.0698632505437
 10
-249.4870130094812
 20
-350.069168505144
 10
-249.4885471837223
 20
-350.0684767202071
 10
-249.4900951627653
 20
-350.067787895733
 10
-249.4916569466105
 20
-350.0671020317219
 10
-249.4932325352578
 20
-350.0664191281736
 10
-249.4948219287071
 20
-350.065739185088
 10
-249.4964251269585
 20
-350.0650622024653
 10
-249.4980421300119
 20
-350.0643881803053
 10
-249.4996729378674
 20
-350.0637171186082
 10
-249.501317550525
 20
-350.0630490173741
 10
-249.5029759679846
 20
-350.0623838766027
 10
-249.5046481902464
 20
-350.0617216962942
 10
-249.5063342173101
 20
-350.0610624764485
 10
-249.508034049176
 20
-350.0604062170656
 10
-249.509747685844
 20
-350.0597529181456
 10
-249.511475127314
 20
-350.0591025796883
 10
-249.513216373586
 20
-350.058455201694
 10
-249.5149714246601
 20
-350.0578107841624
 10
-249.5167402805363
 20
-350.0571693270937
 10
-249.5185229412146
 20
-350.0565308304877
 10
-249.5203194066949
 20
-350.0558952943448
 10
-249.5221296769773
 20
-350.0552627186645
 10
-249.5239537520618
 20
-350.054633103447
 10
-249.5257916319483
 20
-350.0540064486926
 10
-249.5276328893474
 20
-350.05338409629
 10
-249.5294670969698
 20
-350.0527673881286
 10
-249.5312942548153
 20
-350.0521563242084
 10
-249.533114362884
 20
-350.0515509045293
 10
-249.5349274211757
 20
-350.0509511290914
 10
-249.5367334296907
 20
-350.0503569978946
 10
-249.5385323884288
 20
-350.0497685109388
 10
-249.5403242973902
 20
-350.0491856682245
 10
-249.5421091565746
 20
-350.0486084697511
 10
-249.5438869659823
 20
-350.048036915519
 10
-249.5456577256131
 20
-350.047471005528
 10
-249.5474214354671
 20
-350.0469107397781
 10
-249.5491780955441
 20
-350.0463561182693
 10
-249.5509277058445
 20
-350.0458071410019
 10
-249.552670266368
 20
-350.0452638079754
 10
-249.5544057771146
 20
-350.0447261191902
 10
-249.5561342380844
 20
-350.0441940746462
 10
-249.5578556492774
 20
-350.0436676743433
 10
-249.5595700106935
 20
-350.0431469182816
 10
-249.5612773223328
 20
-350.0426318064608
 10
-249.5629775841952
 20
-350.0421223388814
 10
-249.5646707962809
 20
-350.0416185155432
 10
-249.5663569585896
 20
-350.041120336446
 10
-249.5680360711216
 20
-350.0406278015901
 10
-249.5697081338767
 20
-350.0401409109752
 10
-249.571373146855
 20
-350.0396596646015
 10
-249.5730311100564
 20
-350.039184062469
 10
-249.574682023481
 20
-350.0387141045777
 10
-249.5763258871289
 20
-350.0382497909275
 10
-249.5779627009998
 20
-350.0377911215184
 10
-249.5795924650938
 20
-350.0373380963505
 10
-249.5812151794111
 20
-350.0368907154237
 10
-249.5828308439516
 20
-350.0364489787381
 10
-249.5844394587152
 20
-350.0360128862937
 10
-249.5860410237019
 20
-350.0355824380905
 10
-249.5876355389119
 20
-350.0351576341283
 10
-249.5892230043449
 20
-350.0347384744074
 10
-249.5908034200012
 20
-350.0343249589276
 10
-249.5923767858806
 20
-350.0339170876889
 10
-249.5939431019833
 20
-350.0335148606915
 10
-249.595502368309
 20
-350.0331182779352
 10
-249.5970545848579
 20
-350.0327273394201
 10
-249.59859975163
 20
-350.0323420451459
 10
-249.6001378686253
 20
-350.031962395113
 10
-249.6016689358437
 20
-350.0315883893212
 10
-249.6031929532853
 20
-350.0312200277709
 10
-249.60470992095
 20
-350.0308573104613
 10
-249.606219838838
 20
-350.030500237393
 10
-249.607722706949
 20
-350.030148808566
 10
-249.6092185252833
 20
-350.02980302398
 10
-249.6107072938407
 20
-350.0294628836353
 10
-249.6121890126212
 20
-350.0291283875317
 10
-249.613663681625
 20
-350.0287995356692
 10
-249.6151313008518
 20
-350.0284763280479
 10
-249.616591870302
 20
-350.0281587646678
 10
-249.6180453899752
 20
-350.0278468455288
 10
-249.6194918598716
 20
-350.0275405706309
 10
-249.6209312799912
 20
-350.0272399399742
 10
-249.6223636503339
 20
-350.0269449535587
 10
-249.6237889708998
 20
-350.0266556113843
 10
-249.6252072416889
 20
-350.0263719134511
 10
-249.626618462701
 20
-350.0260938597589
 10
-249.6280226339364
 20
-350.0258214503081
 10
-249.629419755395
 20
-350.0255546850984
 10
-249.6308109124979
 20
-350.0252922576536
 10
-249.6321971906661
 20
-350.0250328614979
 10
-249.6335785898998
 20
-350.0247764966311
 10
-249.634955110199
 20
-350.0245231630533
 10
-249.6363267515636
 20
-350.0242728607645
 10
-249.6376935139937
 20
-350.0240255897648
 10
-249.6390553974892
 20
-350.0237813500539
 10
-249.64041240205
 20
-350.023540141632
 10
-249.6417645276763
 20
-350.0233019644991
 10
-249.643111774368
 20
-350.0230668186552
 10
-249.6444541421252
 20
-350.0228347041002
 10
-249.6457916309478
 20
-350.0226056208342
 10
-249.6471242408359
 20
-350.0223795688572
 10
-249.6484519717894
 20
-350.0221565481691
 10
-249.6497748238083
 20
-350.02193655877
 10
-249.6510927968926
 20
-350.02171960066
 10
-249.6524058910424
 20
-350.0215056738389
 10
-249.6537141062576
 20
-350.0212947783067
 10
-249.6550174425383
 20
-350.0210869140636
 10
-249.6563158998843
 20
-350.0208820811093
 10
-249.6576094782958
 20
-350.0206802794441
 10
-249.6588981777728
 20
-350.0204815090679
 10
-249.6601819983151
 20
-350.0202857699805
 10
-249.6614609399229
 20
-350.0200930621823
 10
-249.6627350025961
 20
-350.0199033856729
 10
-249.6640041863348
 20
-350.0197167404525
 10
-249.6652684911389
 20
-350.0195331265211
 10
-249.6665279170084
 20
-350.0193525438787
 10
-249.6677824639434
 20
-350.0191749925252
 10
-249.6690321319437
 20
-350.0190004724608
 10
-249.6702769210096
 20
-350.0188289836852
 10
-249.6715168311408
 20
-350.0186605261987
 10
-249.6727518623376
 20
-350.0184951000012
 10
-249.6739820145997
 20
-350.0183327050927
 10
-249.6752072879273
 20
-350.0181733414731
 10
-249.6764276823203
 20
-350.0180170091424
 10
-249.6776431977787
 20
-350.0178637081007
 10
-249.6788538343025
 20
-350.017713438348
 10
-249.6800595918919
 20
-350.0175661998844
 10
-249.6812604705465
 20
-350.0174219927095
 10
-249.6824564702667
 20
-350.0172808168236
 10
-249.6836475910523
 20
-350.0171426722269
 10
-249.6848338329033
 20
-350.0170075589191
 10
-249.6860151958197
 20
-350.0168754769003
 10
-249.6871916798016
 20
-350.0167464261703
 10
-249.6883632848489
 20
-350.0166204067295
 10
-249.6895300109617
 20
-350.0164974185777
 10
-249.6906918581399
 20
-350.0163774617146
 10
-249.6918488263835
 20
-350.0162605361406
 10
-249.6930009156925
 20
-350.0161466418556
 10
-249.694148126067
 20
-350.0160357788595
 10
-249.6952904575069
 20
-350.0159279471525
 10
-249.6964279100123
 20
-350.0158231467344
 10
-249.697560483583
 20
-350.0157213776053
 10
-249.6986881782192
 20
-350.0156226397652
 10
-249.6998109939209
 20
-350.015526933214
 10
-249.700928930688
 20
-350.0154342579516
 10
-249.7020419885204
 20
-350.0153446139785
 10
-249.7031501674184
 20
-350.0152580012942
 10
-249.7042534673817
 20
-350.0151744198989
 10
-249.7053518884106
 20
-350.0150938697926
 10
-249.7064454305048
 20
-350.0150163509752
 10
-249.7075340936644
 20
-350.0149418634471
 10
-249.7086178778896
 20
-350.0148704072076
 10
-249.7096970298211
 20
-350.0148009694607
 10
-249.7107717961001
 20
-350.0147325374098
 10
-249.7118421767266
 20
-350.0146651110549
 10
-249.7129081717005
 20
-350.014598690396
 10
-249.713969781022
 20
-350.0145332754331
 10
-249.715027004691
 20
-350.0144688661661
 10
-249.7160798427074
 20
-350.0144054625952
 10
-249.7171282950713
 20
-350.0143430647202
 10
-249.7181723617826
 20
-350.0142816725414
 10
-249.7192120428415
 20
-350.0142212860583
 10
-249.7202473382477
 20
-350.0141619052715
 10
-249.7212782480015
 20
-350.0141035301805
 10
-249.7223047721028
 20
-350.0140461607856
 10
-249.7233269105515
 20
-350.0139897970866
 10
-249.7243446633477
 20
-350.0139344390838
 10
-249.7253580304914
 20
-350.0138800867768
 10
-249.7263670119826
 20
-350.0138267401659
 10
-249.7273716078212
 20
-350.0137743992508
 10
-249.7283718180073
 20
-350.013723064032
 10
-249.7293676425409
 20
-350.013672734509
 10
-249.7303590814219
 20
-350.0136234106822
 10
-249.7313461346505
 20
-350.0135750925512
 10
-249.7323288022265
 20
-350.0135277801162
 10
-249.73330708415
 20
-350.0134814733772
 10
-249.7342809804209
 20
-350.0134361723343
 10
-249.7352504910393
 20
-350.0133918769873
 10
-249.7362156160052
 20
-350.0133485873363
 10
-249.7371763553186
 20
-350.0133063033814
 10
-249.7381327089795
 20
-350.0132650251225
 10
-249.7390846769878
 20
-350.0132247525595
 10
-249.7400322593436
 20
-350.0131854856925
 10
-249.7409754560469
 20
-350.0131472245216
 10
-249.7419142670977
 20
-350.0131099690466
 10
-249.7428486924959
 20
-350.0130737192677
 10
-249.7437787322416
 20
-350.0130384751847
 10
-249.7447043863348
 20
-350.0130042367977
 10
-249.7456256547754
 20
-350.0129710041067
 10
-249.7465425375636
 20
-350.0129387771117
 10
-249.7474550346992
 20
-350.0129075558128
 10
-249.7483631461823
 20
-350.0128773402098
 10
-249.7492668720128
 20
-350.0128481303028
 10
-249.7501662121909
 20
-350.0128199260918
 10
-249.7510611667164
 20
-350.0127927275768
 10
-249.7519517355894
 20
-350.0127665347577
 10
-249.7528379188099
 20
-350.0127413476347
 10
-249.7537197163778
 20
-350.0127171662077
 10
-249.7545971282932
 20
-350.0126939904768
 10
-249.7554701545561
 20
-350.0126718204418
 10
-249.7563387951664
 20
-350.0126506561028
 10
-249.7572030501243
 20
-350.0126304974597
 10
-249.7580629194296
 20
-350.0126113445128
 10
-249.7589184030824
 20
-350.0125931972617
 10
-249.7597695010826
 20
-350.0125760557068
 10
-249.7606162134303
 20
-350.0125599198477
 10
-249.7614585401256
 20
-350.0125447896847
 10
-249.7622964811682
 20
-350.0125306652176
 10
-249.7631300365584
 20
-350.0125175464467
 10
-249.763959206296
 20
-350.0125054333716
 10
-249.7647839903812
 20
-350.0124943259927
 10
-249.7656043888138
 20
-350.0124842243096
 10
-249.7664204015939
 20
-350.0124751283225
 10
-249.7672320287214
 20
-350.0124670380314
 10
-249.7680392701964
 20
-350.0124599534365
 10
-249.7688421260188
 20
-350.0124538745374
 10
-249.7688421260188
 20
-350.0124538745374
 10
-249.7716789668122
 20
-350.0124538745374
  0
LWPOLYLINE
  5
5A0
330
96E
100
AcDbEntity
  8
DATA
  6
Continuous
 62
     7
100
AcDbPolyline
 90
      452
 70
   128
 43
0.0
 10
-249.7716789668122
 20
-351.7892066418874
 10
-249.7664371706903
 20
-351.7892066418874
 10
-249.7649399932509
 20
-351.7891900266844
 10
-249.7634444771441
 20
-351.7891711647716
 10
-249.76195062237
 20
-351.7891500561492
 10
-249.7604584289285
 20
-351.7891267008169
 10
-249.7589678968197
 20
-351.7891010987748
 10
-249.7574790260435
 20
-351.789073250023
 10
-249.7559918166
 20
-351.7890431545615
 10
-249.7545062684892
 20
-351.7890108123901
 10
-249.753022381711
 20
-351.788976223509
 10
-249.7515401562655
 20
-351.7889393879181
 10
-249.7500595921526
 20
-351.7889003056175
 10
-249.7485806893724
 20
-351.7888589766072
 10
-249.7471034479248
 20
-351.7888154008871
 10
-249.74562786781
 20
-351.7887695784572
 10
-249.7441539490277
 20
-351.7887215093175
 10
-249.7426816915781
 20
-351.7886711934681
 10
-249.7412110954612
 20
-351.7886186309089
 10
-249.7397421606769
 20
-351.78856382164
 10
-249.7382748872253
 20
-351.7885067656612
 10
-249.7368092751064
 20
-351.7884474629728
 10
-249.7353453243201
 20
-351.7883859135745
 10
-249.7338830348665
 20
-351.7883221174666
 10
-249.7324224067455
 20
-351.7882560746488
 10
-249.7309634399571
 20
-351.7881877851213
 10
-249.7295061345014
 20
-351.788117248884
 10
-249.7280504903784
 20
-351.788044465937
 10
-249.7265965075881
 20
-351.7879694362802
 10
-249.7251441861304
 20
-351.7878921599136
 10
-249.7236935260054
 20
-351.7878126368373
 10
-249.722244527213
 20
-351.7877308670512
 10
-249.7207971897533
 20
-351.7876468505554
 10
-249.7193515136263
 20
-351.7875605873498
 10
-249.7179074988318
 20
-351.7874720774344
 10
-249.7164651453701
 20
-351.7873813208092
 10
-249.715024453241
 20
-351.7872883174744
 10
-249.7135854224445
 20
-351.7871930674297
 10
-249.7121480529808
 20
-351.7870955706752
 10
-249.7107123448497
 20
-351.7869958272111
 10
-249.7092782980512
 20
-351.7868938370371
 10
-249.7078459125854
 20
-351.7867896001533
 10
-249.7064151884523
 20
-351.7866831165599
 10
-249.7049861256517
 20
-351.7865743862567
 10
-249.7035587241839
 20
-351.7864634092436
 10
-249.7021329840487
 20
-351.7863501855209
 10
-249.7007089052463
 20
-351.7862347150884
 10
-249.6992864877764
 20
-351.7861169979461
 10
-249.6978657316391
 20
-351.7859970340941
 10
-249.6964466368346
 20
-351.7858748235323
 10
-249.6950292033627
 20
-351.7857503662609
 10
-249.6936134312234
 20
-351.7856236622795
 10
-249.6921993204169
 20
-351.7854947115883
 10
-249.6907868709429
 20
-351.7853635141875
 10
-249.6893760828017
 20
-351.7852300700769
 10
-249.6879669559931
 20
-351.7850943792565
 10
-249.6865594905172
 20
-351.7849564417264
 10
-249.6851536863739
 20
-351.7848162574864
 10
-249.6837495435633
 20
-351.7846738265368
 10
-249.6823470620852
 20
-351.7845291488774
 10
-249.68094624194
 20
-351.7843822245082
 10
-249.6795470831273
 20
-351.7842330534293
 10
-249.6781495856473
 20
-351.7840816356406
 10
-249.6767537495
 20
-351.7839279711421
 10
-249.6753595746853
 20
-351.7837720599339
 10
-249.6739670612033
 20
-351.7836139020158
 10
-249.672575718403
 20
-351.783453353903
 10
-249.6711850556335
 20
-351.7832902721097
 10
-249.6697950728949
 20
-351.7831246566363
 10
-249.6684057701871
 20
-351.7829565074826
 10
-249.6670171475102
 20
-351.7827858246489
 10
-249.6656292048641
 20
-351.7826126081347
 10
-249.6642419422489
 20
-351.7824368579405
 10
-249.6628553596644
 20
-351.7822585740661
 10
-249.6614694571109
 20
-351.7820777565113
 10
-249.6600842345881
 20
-351.7818944052764
 10
-249.6586996920962
 20
-351.7817085203613
 10
-249.6573158296352
 20
-351.781520101766
 10
-249.6559326472048
 20
-351.7813291494904
 10
-249.6545501448055
 20
-351.7811356635346
 10
-249.6531683224369
 20
-351.7809396438988
 10
-249.6517871800993
 20
-351.7807410905825
 10
-249.6504067177923
 20
-351.780540003586
 10
-249.6490269355163
 20
-351.7803363829094
 10
-249.6476478332711
 20
-351.7801302285525
 10
-249.6462694110567
 20
-351.7799215405156
 10
-249.6448916688732
 20
-351.7797103187982
 10
-249.6435146067204
 20
-351.7794965634008
 10
-249.6421382245986
 20
-351.7792802743232
 10
-249.6407625225076
 20
-351.7790614515651
 10
-249.6393875004474
 20
-351.778840095127
 10
-249.6380131584181
 20
-351.7786162050087
 10
-249.6366394964196
 20
-351.7783897812102
 10
-249.6352665144519
 20
-351.7781608237314
 10
-249.633894212515
 20
-351.7779293325725
 10
-249.632522590609
 20
-351.7776953077332
 10
-249.6311516487338
 20
-351.7774587492138
 10
-249.6297813868896
 20
-351.7772196570143
 10
-249.628411805076
 20
-351.7769780311344
 10
-249.6270429032934
 20
-351.7767338715744
 10
-249.6256746815416
 20
-351.7764871783341
 10
-249.6243071398206
 20
-351.7762379514136
 10
-249.6229402781304
 20
-351.775986190813
 10
-249.6215740964711
 20
-351.7757318965321
 10
-249.6202085948427
 20
-351.7754750685709
 10
-249.6188437732451
 20
-351.7752157069297
 10
-249.6174796316783
 20
-351.7749538116081
 10
-249.6161161701424
 20
-351.7746893826063
 10
-249.6147533886372
 20
-351.7744224199244
 10
-249.6133912871629
 20
-351.7741529235622
 10
-249.6120298657195
 20
-351.7738808935197
 10
-249.6106691243069
 20
-351.7736063297972
 10
-249.6093090629251
 20
-351.7733292323944
 10
-249.6079496815742
 20
-351.7730496013113
 10
-249.6065909802541
 20
-351.772767436548
 10
-249.6052329589649
 20
-351.7724827381045
 10
-249.6038756177064
 20
-351.7721955059809
 10
-249.6025189564789
 20
-351.7719057401769
 10
-249.6011629752821
 20
-351.7716134406929
 10
-249.5998076741162
 20
-351.7713186075285
 10
-249.5984530529812
 20
-351.771021240684
 10
-249.5970991118769
 20
-351.7707213401593
 10
-249.5957458508035
 20
-351.7704189059544
 10
-249.594393269761
 20
-351.7701139380691
 10
-249.5930413687492
 20
-351.7698064365037
 10
-249.5916901477684
 20
-351.7694964012581
 10
-249.5903396068184
 20
-351.7691838323323
 10
-249.5889897458991
 20
-351.7688687297262
 10
-249.5876405650108
 20
-351.76855109344
 10
-249.5862920641532
 20
-351.7682309234736
 10
-249.5849451880023
 20
-351.7679082864173
 10
-249.5836008812337
 20
-351.7675832488617
 10
-249.5822591438474
 20
-351.7672558108068
 10
-249.5809199758435
 20
-351.7669259722526
 10
-249.579583377222
 20
-351.7665937331992
 10
-249.5782493479828
 20
-351.7662590936462
 10
-249.576917888126
 20
-351.7659220535941
 10
-249.5755889976515
 20
-351.7655826130426
 10
-249.5742626765593
 20
-351.7652407719917
 10
-249.5729389248495
 20
-351.7648965304417
 10
-249.5716177425221
 20
-351.7645498883922
 10
-249.570299129577
 20
-351.7642008458434
 10
-249.5689830860142
 20
-351.7638494027953
 10
-249.5676696118338
 20
-351.7634955592479
 10
-249.5663587070358
 20
-351.7631393152012
 10
-249.56505037162
 20
-351.7627806706552
 10
-249.5637446055866
 20
-351.7624196256097
 10
-249.5624414089357
 20
-351.7620561800651
 10
-249.561140781667
 20
-351.761690334021
 10
-249.5598427237807
 20
-351.7613220874777
 10
-249.5585472352767
 20
-351.7609514404348
 10
-249.5572543161551
 20
-351.7605783928928
 10
-249.5559639664158
 20
-351.7602029448516
 10
-249.5546761860589
 20
-351.7598250963108
 10
-249.5533909750843
 20
-351.7594448472709
 10
-249.5521083334921
 20
-351.7590621977316
 10
-249.5508282612822
 20
-351.7586771476929
 10
-249.5495507584547
 20
-351.7582896971551
 10
-249.5482758250096
 20
-351.7578998461178
 10
-249.5470034609467
 20
-351.7575075945812
 10
-249.5457336662663
 20
-351.7571129425453
 10
-249.5444664409681
 20
-351.7567158900101
 10
-249.5432017850523
 20
-351.7563164369756
 10
-249.5419396985189
 20
-351.7559145834417
 10
-249.5406801813678
 20
-351.7555103294085
 10
-249.539423233599
 20
-351.755103674876
 10
-249.5381688552126
 20
-351.754694619844
 10
-249.5369170462086
 20
-351.754283164313
 10
-249.535667806587
 20
-351.7538693082824
 10
-249.5344211363476
 20
-351.7534530517527
 10
-249.5331770354906
 20
-351.7530343947235
 10
-249.531935504016
 20
-351.7526133371952
 10
-249.5306965419237
 20
-351.7521898791674
 10
-249.5294601492137
 20
-351.7517640206403
 10
-249.5282263258861
 20
-351.7513357616138
 10
-249.5269950719409
 20
-351.7509051020881
 10
-249.525766387378
 20
-351.750472042063
 10
-249.5245402721975
 20
-351.7500365815386
 10
-249.5233167263992
 20
-351.7495987205149
 10
-249.5220957499834
 20
-351.7491584589919
 10
-249.5208773429498
 20
-351.7487157969695
 10
-249.5196615052988
 20
-351.7482707344478
 10
-249.51844823703
 20
-351.7478232714268
 10
-249.5172375381434
 20
-351.7473734079065
 10
-249.5160294086393
 20
-351.7469211438868
 10
-249.5148238485176
 20
-351.7464664793679
 10
-249.5136208577782
 20
-351.7460094143496
 10
-249.5124204364211
 20
-351.7455499488319
 10
-249.5112225844464
 20
-351.745088082815
 10
-249.510027301854
 20
-351.7446238162988
 10
-249.508834588644
 20
-351.7441571492832
 10
-249.5076444448163
 20
-351.7436880817684
 10
-249.506456870371
 20
-351.743216613754
 10
-249.505271865308
 20
-351.7427427452405
 10
-249.5040902536673
 20
-351.7422667522294
 10
-249.5029128594884
 20
-351.7417889107225
 10
-249.5017396827714
 20
-351.7413092207198
 10
-249.5005707235165
 20
-351.7408276822212
 10
-249.4994059817235
 20
-351.7403442952268
 10
-249.4982454573924
 20
-351.7398590597365
 10
-249.4970891505233
 20
-351.7393719757504
 10
-249.4959370611161
 20
-351.7388830432685
 10
-249.494789189171
 20
-351.7383922622907
 10
-249.4936455346878
 20
-351.7378996328172
 10
-249.4925060976666
 20
-351.7374051548478
 10
-249.4913708781072
 20
-351.7369088283827
 10
-249.4902398760099
 20
-351.7364106534218
 10
-249.4891130913745
 20
-351.7359106299648
 10
-249.4879905242011
 20
-351.7354087580122
 10
-249.4868721744895
 20
-351.7349050375637
 10
-249.48575804224
 20
-351.7343994686194
 10
-249.4846481274525
 20
-351.7338920511793
 10
-249.4835424301268
 20
-351.7333827852433
 10
-249.4824409502631
 20
-351.7328716708115
 10
-249.4813436878615
 20
-351.7323587078839
 10
-249.4802506429217
 20
-351.7318438964605
 10
-249.4791618154439
 20
-351.7313272365413
 10
-249.478077205428
 20
-351.7308087281261
 10
-249.4769968128741
 20
-351.7302883712153
 10
-249.4759206377822
 20
-351.7297661658085
 10
-249.4748486801522
 20
-351.729242111906
 10
-249.4737809399842
 20
-351.7287162095075
 10
-249.4727174172781
 20
-351.7281884586133
 10
-249.471658112034
 20
-351.7276588592233
 10
-249.4706030242519
 20
-351.7271274113375
 10
-249.4695521539316
 20
-351.7265941149557
 10
-249.4685055010734
 20
-351.7260589700783
 10
-249.4674630656771
 20
-351.7255219767049
 10
-249.4664248477427
 20
-351.7249831348357
 10
-249.4653908472704
 20
-351.7244424444708
 10
-249.4643610642599
 20
-351.72389990561
 10
-249.4633354987115
 20
-351.7233555182534
 10
-249.4623141506249
 20
-351.722809282401
 10
-249.4612970200004
 20
-351.7222611980528
 10
-249.4602841068377
 20
-351.7217112652086
 10
-249.4592754111371
 20
-351.7211594838687
 10
-249.4582709328984
 20
-351.7206058540329
 10
-249.4572706721216
 20
-351.7200503757014
 10
-249.4562746288068
 20
-351.7194930488739
 10
-249.455282802954
 20
-351.7189338735507
 10
-249.4542951945632
 20
-351.7183728497317
 10
-249.4533118036343
 20
-351.7178099774168
 10
-249.4523326301673
 20
-351.7172452566061
 10
-249.4513576741623
 20
-351.7166786872995
 10
-249.4503869356192
 20
-351.7161102694972
 10
-249.4494204145381
 20
-351.715540003199
 10
-249.448458110919
 20
-351.714967888405
 10
-249.4475000247617
 20
-351.7143939251153
 10
-249.4465461560665
 20
-351.7138181133296
 10
-249.4455965048333
 20
-351.7132404530481
 10
-249.4446510710619
 20
-351.7126609442708
 10
-249.4437098547526
 20
-351.7120795869977
 10
-249.4427728559052
 20
-351.7114963812288
 10
-249.4418400745197
 20
-351.710911326964
 10
-249.4409115105962
 20
-351.7103244242034
 10
-249.4399871641346
 20
-351.7097356729471
 10
-249.439067035135
 20
-351.7091450731948
 10
-249.4381511235975
 20
-351.7085526249467
 10
-249.4372399015508
 20
-351.7079587473208
 10
-249.4363338410244
 20
-351.7073638594347
 10
-249.435432942018
 20
-351.7067679612887
 10
-249.4345372045318
 20
-351.7061710528829
 10
-249.4336466285657
 20
-351.7055731342168
 10
-249.4327612141197
 20
-351.7049742052908
 10
-249.4318809611938
 20
-351.7043742661048
 10
-249.4310058697881
 20
-351.7037733166588
 10
-249.4301359399024
 20
-351.7031713569527
 10
-249.4292711715369
 20
-351.7025683869866
 10
-249.4284115646915
 20
-351.7019644067606
 10
-249.4275571193663
 20
-351.7013594162745
 10
-249.4267078355611
 20
-351.7007534155284
 10
-249.4258637132761
 20
-351.7001464045224
 10
-249.4250247525112
 20
-351.6995383832563
 10
-249.4241909532664
 20
-351.6989293517301
 10
-249.4233623155417
 20
-351.698319309944
 10
-249.4225388393372
 20
-351.6977082578978
 10
-249.4217205246528
 20
-351.6970961955916
 10
-249.4209073714884
 20
-351.6964831230256
 10
-249.4200993798443
 20
-351.6958690401994
 10
-249.4192965497203
 20
-351.6952539471132
 10
-249.4184988811164
 20
-351.6946378437671
 10
-249.4177063740325
 20
-351.6940207301609
 10
-249.4169190284689
 20
-351.6934026062948
 10
-249.4161368444252
 20
-351.6927834721686
 10
-249.4153598219018
 20
-351.6921633277823
 10
-249.4145879608985
 20
-351.6915421731362
 10
-249.4138212614153
 20
-351.69092000823
 10
-249.4130597234522
 20
-351.6902968330637
 10
-249.4123033470093
 20
-351.6896726476376
 10
-249.4115521320864
 20
-351.6890474519513
 10
-249.4108060786837
 20
-351.6884212460051
 10
-249.410065186801
 20
-351.6877940297988
 10
-249.4093294564386
 20
-351.6871658033326
 10
-249.4085988875963
 20
-351.6865365666062
 10
-249.407873480274
 20
-351.68590631962
 10
-249.4071532344719
 20
-351.6852750623737
 10
-249.4064381501899
 20
-351.6846427948674
 10
-249.405728227428
 20
-351.6840095171011
 10
-249.4050234661862
 20
-351.6833752290748
 10
-249.4043238664646
 20
-351.6827399307885
 10
-249.4036294282631
 20
-351.6821036222422
 10
-249.4029401515817
 20
-351.6814663034358
 10
-249.4022560364204
 20
-351.6808279743695
 10
-249.4015770827793
 20
-351.6801886350431
 10
-249.4009032906583
 20
-351.6795482854568
 10
-249.4002346600574
 20
-351.6789069256104
 10
-249.3995711909766
 20
-351.678264555504
 10
-249.398912883416
 20
-351.6776211751377
 10
-249.3982597373754
 20
-351.6769767845112
 10
-249.397611752855
 20
-351.6763313836248
 10
-249.3969689298547
 20
-351.6756849724784
 10
-249.3963312683745
 20
-351.6750375510719
 10
-249.3956987684144
 20
-351.6743891194055
 10
-249.3950714299745
 20
-351.6737396774791
 10
-249.3944492530547
 20
-351.6730892252926
 10
-249.393832237655
 20
-351.6724377628461
 10
-249.3932203837755
 20
-351.6717852901397
 10
-249.392613691416
 20
-351.6711318071731
 10
-249.3920121605766
 20
-351.6704773139468
 10
-249.3914157912574
 20
-351.6698218104603
 10
-249.3908245834584
 20
-351.6691652967137
 10
-249.3902385371794
 20
-351.6685077727072
 10
-249.3896579062508
 20
-351.6678503469457
 10
-249.3890829445032
 20
-351.6671941279333
 10
-249.3885136519361
 20
-351.6665391156708
 10
-249.38795002855
 20
-351.6658853101577
 10
-249.3873920743447
 20
-351.6652327113942
 10
-249.3868397893201
 20
-351.6645813193802
 10
-249.3862931734764
 20
-351.6639311341159
 10
-249.3857522268134
 20
-351.663282155601
 10
-249.3852169493312
 20
-351.6626343838358
 10
-249.3846873410297
 20
-351.66198781882
 10
-249.3841634019092
 20
-351.6613424605538
 10
-249.3836451319693
 20
-351.6606983090373
 10
-249.3831325312103
 20
-351.6600553642702
 10
-249.3826255996321
 20
-351.6594136262527
 10
-249.3821243372346
 20
-351.6587730949848
 10
-249.381628744018
 20
-351.6581337704664
 10
-249.3811388199821
 20
-351.6574956526976
 10
-249.380654565127
 20
-351.6568587416783
 10
-249.3801759794527
 20
-351.6562230374086
 10
-249.3797030629592
 20
-351.6555885398883
 10
-249.3792358156465
 20
-351.6549552491178
 10
-249.3787742375145
 20
-351.6543231650968
 10
-249.3783183285634
 20
-351.6536922878253
 10
-249.377868088793
 20
-351.6530626173035
 10
-249.3774235182036
 20
-351.652434153531
 10
-249.3769846167948
 20
-351.6518068965083
 10
-249.3765513845668
 20
-351.651180846235
 10
-249.3761238215196
 20
-351.6505560027113
 10
-249.3757019276532
 20
-351.6499323659372
 10
-249.3752857029676
 20
-351.6493099359125
 10
-249.3748751474628
 20
-351.6486887126375
 10
-249.3744702611388
 20
-351.648068696112
 10
-249.3740710439955
 20
-351.6474498863362
 10
-249.373677496033
 20
-351.6468322833099
 10
-249.3732896172514
 20
-351.6462158870331
 10
-249.3729074076505
 20
-351.6456006975058
 10
-249.3725308672305
 20
-351.6449867147281
 10
-249.3721599959912
 20
-351.6443739387
 10
-249.3717947939327
 20
-351.6437623694214
 10
-249.3714352610549
 20
-351.6431520068924
 10
-249.371081397358
 20
-351.642542851113
 10
-249.370733202842
 20
-351.6419349020831
 10
-249.3703906775066
 20
-351.6413281598028
 10
-249.3700538213521
 20
-351.640722624272
 10
-249.3697226343783
 20
-351.6401182954907
 10
-249.3693971165853
 20
-351.6395151734591
 10
-249.3690772679732
 20
-351.638913258177
 10
-249.3687630885418
 20
-351.6383125496444
 10
-249.3684545782912
 20
-351.6377130478614
 10
-249.3681517372214
 20
-351.637114752828
 10
-249.3678545653324
 20
-351.6365176645442
 10
-249.3675630626241
 20
-351.6359217830097
 10
-249.3672772290967
 20
-351.635327108225
 10
-249.36699706475
 20
-351.6347336401897
 10
-249.3667225695842
 20
-351.6341413789041
 10
-249.3664537435992
 20
-351.6335503243681
 10
-249.3661905867949
 20
-351.6329604765815
 10
-249.3659330991714
 20
-351.6323718355445
 10
-249.3656812807287
 20
-351.6317844012571
 10
-249.3654351314668
 20
-351.6311981737191
 10
-249.3651946513856
 20
-351.6306131529309
 10
-249.3649598404853
 20
-351.6300293388922
 10
-249.3647306987658
 20
-351.6294467316031
 10
-249.364507226227
 20
-351.6288653310634
 10
-249.3642880930199
 20
-351.6282847210259
 10
-249.3640719692952
 20
-351.6277044852432
 10
-249.3638588550528
 20
-351.6271246237151
 10
-249.363648750293
 20
-351.6265451364418
 10
-249.3634416550155
 20
-351.6259660234231
 10
-249.3632375692205
 20
-351.6253872846593
 10
-249.3630364929078
 20
-351.6248089201501
 10
-249.3628384260776
 20
-351.6242309298957
 10
-249.3626433687299
 20
-351.623653313896
 10
-249.3624513208645
 20
-351.623076072151
 10
-249.3622622824815
 20
-351.6224992046608
 10
-249.362076253581
 20
-351.6219227114253
 10
-249.3618932341629
 20
-351.6213465924445
 10
-249.3617132242273
 20
-351.6207708477184
 10
-249.361536223774
 20
-351.6201954772471
 10
-249.3613622328032
 20
-351.6196204810305
 10
-249.3611912513147
 20
-351.6190458590685
 10
-249.3610232793087
 20
-351.6184716113614
 10
-249.3608583167852
 20
-351.6178977379088
 10
-249.360696363744
 20
-351.6173242387111
 10
-249.3605374201853
 20
-351.6167511137683
 10
-249.3603814861089
 20
-351.6161783630799
 10
-249.3602285615151
 20
-351.6156059866464
 10
-249.3600786464036
 20
-351.6150339844676
 10
-249.3599317407745
 20
-351.6144623565435
 10
-249.3597878446279
 20
-351.6138911028741
 10
-249.3596469579637
 20
-351.6133202234595
 10
-249.3595090807819
 20
-351.6127497182996
 10
-249.3593742130825
 20
-351.6121795873944
 10
-249.3592423548656
 20
-351.6116098307439
 10
-249.359113506131
 20
-351.6110404483482
 10
-249.3589876668789
 20
-351.6104714402072
 10
-249.3588648371092
 20
-351.6099028063209
 10
-249.358745016822
 20
-351.6093345466893
 10
-249.3586282060171
 20
-351.6087666613125
 10
-249.3585144046947
 20
-351.6081991501903
 10
-249.3584036128546
 20
-351.6076320133229
 10
-249.3582958304971
 20
-351.6070652507103
 10
-249.3581910576219
 20
-351.6064988623524
 10
-249.3580892942292
 20
-351.6059328482492
 10
-249.3579905403188
 20
-351.6053672084006
 10
-249.3578947958909
 20
-351.6048019428068
 10
-249.3578020609454
 20
-351.6042370514678
 10
-249.3577123354824
 20
-351.6036725343834
 10
-249.3576256195017
 20
-351.603108391554
 10
-249.3575419130034
 20
-351.602544622979
 10
-249.3574612159877
 20
-351.6019812286589
 10
-249.3573835284542
 20
-351.6014182085935
 10
-249.3573088504033
 20
-351.6008555627828
 10
-249.3572371818347
 20
-351.6002932912269
 10
-249.3571685227486
 20
-351.5997313939256
 10
-249.3571028731449
 20
-351.5991698708791
 10
-249.3570402330236
 20
-351.5986087220873
 10
-249.3569806023848
 20
-351.5980479475503
 10
-249.3569239812283
 20
-351.597487547268
 10
-249.3568703695542
 20
-351.5969275212404
 10
-249.3568197673626
 20
-351.5963678694675
 10
-249.3567721746535
 20
-351.5958085919492
 10
-249.3567275914267
 20
-351.5952496886858
 10
-249.3566860176824
 20
-351.5946911596772
 10
-249.3566474534204
 20
-351.5941330049232
 10
-249.3566118986409
 20
-351.5935752244239
 10
-249.3565793533438
 20
-351.5930178181795
 10
-249.3565498175292
 20
-351.5924607861896
 10
-249.3565498175292
 20
-351.5924607861896
 10
-249.3565498155624
 20
-351.5899447240506
  0
LINE
  5
766
330
96E
100
AcDbEntity
  8
DATA
  6
Continuous
 62
     7
100
AcDbLine
 10
-252.1960332101123
 20
-347.7126383766124
 30
0.0
 11
-251.3657749076121
 21
-347.7126383766124
 31
0.0
  0
LINE
  5
767
330
96E
100
AcDbEntity
  8
DATA
  6
Continuous
 62
     7
100
AcDbLine
 10
-253.8482472320877
 20
-347.7126383766124
 30
0.0
 11
-252.5115313650624
 21
-347.7126383766124
 31
0.0
  0
LINE
  5
768
330
96E
100
AcDbEntity
  8
DATA
  6
Continuous
 62
     7
100
AcDbLine
 10
-248.0862546127376
 20
-347.7126383766124
 30
0.0
 11
-247.2227859781376
 21
-347.7126383766124
 31
0.0
  0
LINE
  5
769
330
96E
100
AcDbEntity
  8
DATA
  6
Continuous
 62
     7
100
AcDbLine
 10
-250.9340405903124
 20
-347.7126383766124
 30
0.0
 11
-249.3482472325375
 21
-347.7126383766124
 31
0.0
  0
LINE
  5
76A
330
96E
100
AcDbEntity
  8
DATA
  6
Continuous
 62
     7
100
AcDbLine
 10
-250.1785055350376
 20
-348.1360701108872
 30
0.0
 11
-249.7716789668122
 21
-348.1360701108872
 31
0.0
  0
ARC
  5
76B
330
96E
100
AcDbEntity
  8
DATA
  6
Continuous
 62
     7
100
AcDbCircle
 10
-249.4138874539333
 20
-348.5655942805861
 30
0.0
 40
0.8548804427192726
100
AcDbArc
 50
8.226923999988466
 51
86.15422299998135
  0
LWPOLYLINE
  5
76C
330
96E
100
AcDbEntity
  8
DATA
  6
Continuous
 62
     7
100
AcDbPolyline
 90
      388
 70
   128
 43
0.0
 10
-249.3565498155624
 20
-348.3353321782508
 10
-249.3565498144983
 20
-348.33397049467
 10
-249.3565934440704
 20
-348.3326192308218
 10
-249.3566480668079
 20
-348.331277050464
 10
-249.3567136827109
 20
-348.3299439535963
 10
-249.3567902917793
 20
-348.3286199402189
 10
-249.3568778940131
 20
-348.3273050103317
 10
-249.3569764894123
 20
-348.3259991639347
 10
-249.3570860779769
 20
-348.3247024010279
 10
-249.3572066597069
 20
-348.3234147216114
 10
-249.3573382346025
 20
-348.322136125685
 10
-249.3574808026634
 20
-348.3208666132489
 10
-249.3576343638897
 20
-348.3196061843029
 10
-249.3577989182814
 20
-348.3183548388473
 10
-249.3579744658386
 20
-348.3171125768819
 10
-249.3581610065612
 20
-348.3158793984066
 10
-249.3583585404492
 20
-348.3146553034217
 10
-249.3585670675026
 20
-348.3134402919269
 10
-249.3587865877215
 20
-348.3122343639224
 10
-249.3590171011057
 20
-348.3110375194081
 10
-249.3592586076553
 20
-348.3098497583838
 10
-249.3595111073704
 20
-348.30867108085
 10
-249.3597746002511
 20
-348.3075014868064
 10
-249.360049086297
 20
-348.3063409762528
 10
-249.3603345655084
 20
-348.3051895491896
 10
-249.3606310378852
 20
-348.3040472056166
 10
-249.3609385034274
 20
-348.3029139455338
 10
-249.3612569621351
 20
-348.3017897689413
 10
-249.3615864140081
 20
-348.3006746758389
 10
-249.3619268590465
 20
-348.2995686662268
 10
-249.3622782972504
 20
-348.2984717401049
 10
-249.3626407286197
 20
-348.2973838974732
 10
-249.3630141531545
 20
-348.2963051383318
 10
-249.3633985708546
 20
-348.2952354626806
 10
-249.3637939817202
 20
-348.2941748705196
 10
-249.3642003857513
 20
-348.2931233618488
 10
-249.3646177829477
 20
-348.2920809366683
 10
-249.3650461733095
 20
-348.2910475949779
 10
-249.3654855568368
 20
-348.2900233367778
 10
-249.3659359335295
 20
-348.2890081620679
 10
-249.3663973033876
 20
-348.2880020708482
 10
-249.3668696664111
 20
-348.2870050631188
 10
-249.3673530226
 20
-348.2860171388796
 10
-249.3678473719544
 20
-348.2850382981305
 10
-249.3683527144742
 20
-348.2840685408717
 10
-249.3688690501595
 20
-348.2831078671032
 10
-249.3693963790101
 20
-348.2821562768249
 10
-249.3699347010261
 20
-348.2812137700368
 10
-249.3704840162076
 20
-348.2802803467389
 10
-249.3710443245544
 20
-348.2793560069311
 10
-249.3716156260668
 20
-348.2784407506137
 10
-249.3721979207445
 20
-348.2775345777865
 10
-249.3727912085877
 20
-348.2766374884495
 10
-249.3733954895962
 20
-348.2757494826027
 10
-249.3740107637702
 20
-348.2748705602461
 10
-249.3746370311096
 20
-348.2740007213798
 10
-249.3752742916145
 20
-348.2731399660037
 10
-249.3759225452848
 20
-348.2722882941177
 10
-249.3765817921204
 20
-348.2714457057221
 10
-249.3772520321215
 20
-348.2706122008166
 10
-249.377933265288
 20
-348.2697877794013
 10
-249.37862549162
 20
-348.2689724414763
 10
-249.3793287111173
 20
-348.2681661870415
 10
-249.3800429237801
 20
-348.2673690160969
 10
-249.3807681296084
 20
-348.2665809286427
 10
-249.381504328602
 20
-348.2658019246785
 10
-249.3822477394121
 20
-348.2650276382768
 10
-249.3829945806898
 20
-348.2642537035094
 10
-249.3837448524351
 20
-348.2634801203766
 10
-249.3844985546481
 20
-348.2627068888781
 10
-249.3852556873286
 20
-348.2619340090141
 10
-249.3860162504767
 20
-348.2611614807845
 10
-249.3867802440924
 20
-348.2603893041895
 10
-249.3875476681757
 20
-348.2596174792288
 10
-249.3883185227266
 20
-348.2588460059027
 10
-249.3890928077451
 20
-348.258074884211
 10
-249.3898705232312
 20
-348.2573041141537
 10
-249.3906516691848
 20
-348.2565336957309
 10
-249.3914362456061
 20
-348.2557636289426
 10
-249.3922242524949
 20
-348.2549939137887
 10
-249.3930156898514
 20
-348.2542245502691
 10
-249.3938105576755
 20
-348.2534555383841
 10
-249.3946088559671
 20
-348.2526868781335
 10
-249.3954105847264
 20
-348.2519185695175
 10
-249.3962157439532
 20
-348.2511506125358
 10
-249.3970243336476
 20
-348.2503830071886
 10
-249.3978363538096
 20
-348.2496157534758
 10
-249.3986518044392
 20
-348.2488488513975
 10
-249.3994706855365
 20
-348.2480823009537
 10
-249.4002929971014
 20
-348.2473161021442
 10
-249.4011187391337
 20
-348.2465502549694
 10
-249.4019479116337
 20
-348.2457847594289
 10
-249.4027805146013
 20
-348.2450196155228
 10
-249.4036165480365
 20
-348.2442548232512
 10
-249.4044560119393
 20
-348.2434903826141
 10
-249.4052989063096
 20
-348.2427262936114
 10
-249.4061452311476
 20
-348.2419625562432
 10
-249.4069949864532
 20
-348.2411991705093
 10
-249.4078481722264
 20
-348.24043613641
 10
-249.4087047884671
 20
-348.2396734539451
 10
-249.4095648351755
 20
-348.2389111231147
 10
-249.4104283123514
 20
-348.2381491439187
 10
-249.4112952199949
 20
-348.2373875163572
 10
-249.412165558106
 20
-348.2366262404302
 10
-249.4130393266848
 20
-348.2358653161374
 10
-249.4139165257311
 20
-348.2351047434792
 10
-249.414797155245
 20
-348.2343445224556
 10
-249.4156812152265
 20
-348.2335846530663
 10
-249.4165687056756
 20
-348.2328251353115
 10
-249.4174596265924
 20
-348.2320659691912
 10
-249.4183539779766
 20
-348.2313071547052
 10
-249.4192517598285
 20
-348.2305486918537
 10
-249.420152972148
 20
-348.2297905806368
 10
-249.4210576149351
 20
-348.2290328210542
 10
-249.4219656881897
 20
-348.2282754131061
 10
-249.422877191912
 20
-348.2275183567923
 10
-249.4237921261019
 20
-348.2267616521132
 10
-249.4247104907593
 20
-348.2260052990684
 10
-249.4256322858844
 20
-348.2252492976581
 10
-249.426557511477
 20
-348.2244936478824
 10
-249.4274861675373
 20
-348.2237383497409
 10
-249.4284182540651
 20
-348.222983403234
 10
-249.4293537710606
 20
-348.2222288083615
 10
-249.4302927185236
 20
-348.2214745651234
 10
-249.4312350964542
 20
-348.2207206735197
 10
-249.4321809048524
 20
-348.2199671335507
 10
-249.4331301437182
 20
-348.2192139452162
 10
-249.4340828130516
 20
-348.2184611085158
 10
-249.4350389128526
 20
-348.21770862345
 10
-249.4359984431212
 20
-348.2169564900187
 10
-249.4369665912934
 20
-348.2162058984976
 10
-249.4379485448051
 20
-348.2154580391624
 10
-249.4389443036565
 20
-348.2147129120132
 10
-249.4399538678474
 20
-348.2139705170499
 10
-249.4409772373779
 20
-348.2132308542726
 10
-249.442014412248
 20
-348.2124939236813
 10
-249.4430653924576
 20
-348.2117597252759
 10
-249.4441301780069
 20
-348.2110282590565
 10
-249.4452087688957
 20
-348.210299525023
 10
-249.446301165124
 20
-348.2095735231754
 10
-249.447407366692
 20
-348.2088502535138
 10
-249.4485273735996
 20
-348.2081297160383
 10
-249.4496611858467
 20
-348.2074119107486
 10
-249.4508088034335
 20
-348.2066968376451
 10
-249.4519702263596
 20
-348.2059844967273
 10
-249.4531454546256
 20
-348.2052748879955
 10
-249.454334488231
 20
-348.2045680114497
 10
-249.455537327176
 20
-348.2038638670899
 10
-249.4567539714606
 20
-348.203162454916
 10
-249.4579844210848
 20
-348.202463774928
 10
-249.4592286760485
 20
-348.2017678271262
 10
-249.4604867363519
 20
-348.2010746115101
 10
-249.4617586019948
 20
-348.20038412808
 10
-249.4630442729774
 20
-348.1996963768358
 10
-249.4643437492994
 20
-348.1990113577777
 10
-249.4656570309611
 20
-348.1983290709055
 10
-249.4669841179624
 20
-348.1976495162192
 10
-249.4683250103031
 20
-348.196972693719
 10
-249.4696797079836
 20
-348.1962986034047
 10
-249.4710482110036
 20
-348.1956272452763
 10
-249.4724305193631
 20
-348.1949586193339
 10
-249.4738266330623
 20
-348.1942927255774
 10
-249.475236552101
 20
-348.1936295640069
 10
-249.4766602764793
 20
-348.1929691346223
 10
-249.4780978061971
 20
-348.1923114374238
 10
-249.4795491412546
 20
-348.1916564724112
 10
-249.4810142816516
 20
-348.1910042395845
 10
-249.4824932273882
 20
-348.1903547389438
 10
-249.4839859784644
 20
-348.1897079704891
 10
-249.4854925348801
 20
-348.1890639342202
 10
-249.4870128966355
 20
-348.1884226301373
 10
-249.4885470637304
 20
-348.1877840582404
 10
-249.4900950361649
 20
-348.1871482185295
 10
-249.491656813939
 20
-348.1865151110045
 10
-249.4932323970527
 20
-348.1858847356656
 10
-249.494821785506
 20
-348.1852570925125
 10
-249.4964249792988
 20
-348.1846321815454
 10
-249.4980419784312
 20
-348.1840100027643
 10
-249.4996727829032
 20
-348.1833905561691
 10
-249.5013173927147
 20
-348.18277384176
 10
-249.5029758078659
 20
-348.1821598595367
 10
-249.5046480283566
 20
-348.1815486094994
 10
-249.5063340541868
 20
-348.1809400916481
 10
-249.5080338853568
 20
-348.1803343059826
 10
-249.5097475218663
 20
-348.1797312525032
 10
-249.5114749637153
 20
-348.1791309312097
 10
-249.5132162109039
 20
-348.1785333421021
 10
-249.5149712634321
 20
-348.1779384851805
 10
-249.5167401212999
 20
-348.1773463604449
 10
-249.5185227845073
 20
-348.1767569678953
 10
-249.5203192530542
 20
-348.1761703075316
 10
-249.5221295269407
 20
-348.1755863793538
 10
-249.5239536061668
 20
-348.175005183362
 10
-249.5257914907324
 20
-348.1744267195562
 10
-249.5276327530385
 20
-348.1738522269898
 10
-249.5294669654859
 20
-348.1732829447163
 10
-249.5312941280744
 20
-348.1727188727357
 10
-249.5331142408042
 20
-348.172160011048
 10
-249.5349273036753
 20
-348.1716063596531
 10
-249.5367333166876
 20
-348.1710579185512
 10
-249.5385322798412
 20
-348.1705146877421
 10
-249.540324193136
 20
-348.169976667226
 10
-249.5421090565721
 20
-348.1694438570027
 10
-249.5438868701494
 20
-348.1689162570722
 10
-249.545657633868
 20
-348.1683938674349
 10
-249.5474213477277
 20
-348.1678766880902
 10
-249.5491780117288
 20
-348.1673647190385
 10
-249.5509276258711
 20
-348.1668579602797
 10
-249.5526701901546
 20
-348.1663564118138
 10
-249.5544057045794
 20
-348.1658600736408
 10
-249.5561341691455
 20
-348.1653689457606
 10
-249.5578555838528
 20
-348.1648830281733
 10
-249.5595699487013
 20
-348.1644023208789
 10
-249.5612772636911
 20
-348.1639268238775
 10
-249.5629775288221
 20
-348.1634565371689
 10
-249.5646707440944
 20
-348.1629914607532
 10
-249.5663569095078
 20
-348.1625315946303
 10
-249.5680360250626
 20
-348.1620769388005
 10
-249.5697080907587
 20
-348.1616274932635
 10
-249.571373106596
 20
-348.1611832580195
 10
-249.5730310725744
 20
-348.1607442330682
 10
-249.5746819886941
 20
-348.1603104184098
 10
-249.5763258549552
 20
-348.1598818140444
 10
-249.5779626713574
 20
-348.1594584199718
 10
-249.5795924379009
 20
-348.1590402361922
 10
-249.5812151545857
 20
-348.1586272627054
 10
-249.5828308214116
 20
-348.1582194995115
 10
-249.5844394383789
 20
-348.1578169466104
 10
-249.5860410054874
 20
-348.1574196040024
 10
-249.5876355227371
 20
-348.1570274716872
 10
-249.5892229901281
 20
-348.1566405496648
 10
-249.5908034076603
 20
-348.1562588379354
 10
-249.5923767753338
 20
-348.1558823364988
 10
-249.5939430931485
 20
-348.1555110453552
 10
-249.5955023611044
 20
-348.1551449645045
 10
-249.5970545792016
 20
-348.1547840939466
 10
-249.5985997474401
 20
-348.1544284336818
 10
-249.6001378658199
 20
-348.1540779837096
 10
-249.6016689343408
 20
-348.1537327440304
 10
-249.6031929530029
 20
-348.1533927146441
 10
-249.6047099218064
 20
-348.1530578955508
 10
-249.6062198407511
 20
-348.1527282867502
 10
-249.6077227098369
 20
-348.1524038882425
 10
-249.6092185290641
 20
-348.1520847000278
 10
-249.6107072984326
 20
-348.1517707221059
 10
-249.6121890179423
 20
-348.1514619544769
 10
-249.6136636875932
 20
-348.151158397141
 10
-249.6151313073854
 20
-348.1508600500977
 10
-249.6165918773188
 20
-348.1505669133475
 10
-249.6180453973934
 20
-348.15027898689
 10
-249.6194918676093
 20
-348.1499962707256
 10
-249.6209312879666
 20
-348.1497187648539
 10
-249.6223636584649
 20
-348.1494464692753
 10
-249.6237889791046
 20
-348.1491793839894
 10
-249.6252072498855
 20
-348.1489175089965
 10
-249.6266184708077
 20
-348.1486608442964
 10
-249.6280226418711
 20
-348.1484093898892
 10
-249.6294197630757
 20
-348.1481631457751
 10
-249.6308109198861
 20
-348.1479209058568
 10
-249.6321971977672
 20
-348.1476814640377
 10
-249.6335785967187
 20
-348.1474448203176
 10
-249.6349551167404
 20
-348.1472109746966
 10
-249.6363267578329
 20
-348.1469799271749
 10
-249.6376935199957
 20
-348.1467516777522
 10
-249.639055403229
 20
-348.1465262264287
 10
-249.6404124075328
 20
-348.1463035732044
 10
-249.6417645329071
 20
-348.146083718079
 10
-249.6431117793517
 20
-348.1458666610528
 10
-249.644454146867
 20
-348.1456524021258
 10
-249.6457916354526
 20
-348.1454409412979
 10
-249.6471242451088
 20
-348.1452322785689
 10
-249.6484519758352
 20
-348.1450264139393
 10
-249.6497748276324
 20
-348.1448233474086
 10
-249.6510928004999
 20
-348.1446230789772
 10
-249.6524058944379
 20
-348.1444256086448
 10
-249.6537141094464
 20
-348.1442309364116
 10
-249.6550174455253
 20
-348.1440390622775
 10
-249.6563159026746
 20
-348.1438499862425
 10
-249.6576094808945
 20
-348.1436637083066
 10
-249.6588981801849
 20
-348.1434802284699
 10
-249.6601820005457
 20
-348.1432995467322
 10
-249.6614609419769
 20
-348.1431216630937
 10
-249.6627350044787
 20
-348.1429465775542
 10
-249.6640041880509
 20
-348.1427742901139
 10
-249.6652684926936
 20
-348.1426048007728
 10
-249.6665279184067
 20
-348.1424381095308
 10
-249.6677824651904
 20
-348.1422742163879
 10
-249.6690321330444
 20
-348.1421131213441
 10
-249.6702769219689
 20
-348.1419548243994
 10
-249.671516831964
 20
-348.1417993255538
 10
-249.6727518630295
 20
-348.1416466248074
 10
-249.6739820151654
 20
-348.14149672216
 10
-249.6752072883718
 20
-348.1413496176119
 10
-249.6764276826487
 20
-348.1412053111628
 10
-249.6776431979961
 20
-348.1410638028128
 10
-249.678853834414
 20
-348.1409250925619
 10
-249.6800595919022
 20
-348.1407891804102
 10
-249.681260470461
 20
-348.1406560663577
 10
-249.6824564700903
 20
-348.140525750404
 10
-249.6836475907899
 20
-348.1403982325497
 10
-249.6848338325601
 20
-348.1402735127945
 10
-249.6860151954007
 20
-348.1401515911383
 10
-249.6871916793118
 20
-348.1400324675813
 10
-249.6883632842934
 20
-348.1399161421234
 10
-249.6895300103454
 20
-348.1398026147648
 10
-249.690691857468
 20
-348.1396918855049
 10
-249.691848825661
 20
-348.1395839543444
 10
-249.6930009149244
 20
-348.139478821283
 10
-249.6941481252583
 20
-348.1393764863207
 10
-249.6952904566627
 20
-348.1392769494576
 10
-249.6964279091376
 20
-348.1391802106935
 10
-249.6975604826829
 20
-348.1390862700286
 10
-249.6986881772986
 20
-348.1389951274628
 10
-249.6998109929849
 20
-348.138906782996
 10
-249.7009289297417
 20
-348.1388212366284
 10
-249.7020419875689
 20
-348.1387384883599
 10
-249.7031501664665
 20
-348.1386585381906
 10
-249.7042534664347
 20
-348.1385813861204
 10
-249.7053518874733
 20
-348.1385070321492
 10
-249.7064454295824
 20
-348.1384354762771
 10
-249.7075340927619
 20
-348.1383667185044
 10
-249.7086178770119
 20
-348.1383007588306
 10
-249.7096970289707
 20
-348.1382366623744
 10
-249.7107717952764
 20
-348.1381734942541
 10
-249.7118421759293
 20
-348.1381112544698
 10
-249.7129081709292
 20
-348.1380499430212
 10
-249.7139697802762
 20
-348.137989559909
 10
-249.7150270039701
 20
-348.1379301051324
 10
-249.7160798420112
 20
-348.1378715786918
 10
-249.7171282943993
 20
-348.1378139805872
 10
-249.7181723611344
 20
-348.1377573108184
 10
-249.7192120422166
 20
-348.1377015693856
 10
-249.7202473376459
 20
-348.1376467562889
 10
-249.7212782474221
 20
-348.1375928715279
 10
-249.7223047715455
 20
-348.1375399151029
 10
-249.7233269100158
 20
-348.137487887014
 10
-249.7243446628333
 20
-348.1374367872609
 10
-249.7253580299977
 20
-348.1373866158438
 10
-249.7263670115092
 20
-348.1373373727626
 10
-249.7273716073677
 20
-348.1372890580173
 10
-249.7283718175733
 20
-348.137241671608
 10
-249.7293676421261
 20
-348.1371952135348
 10
-249.7303590810258
 20
-348.1371496837973
 10
-249.7313461342725
 20
-348.1371050823958
 10
-249.7323288018662
 20
-348.1370614093302
 10
-249.7333070838071
 20
-348.1370186646006
 10
-249.734280980095
 20
-348.1369768482071
 10
-249.7352504907299
 20
-348.1369359601492
 10
-249.7362156157119
 20
-348.1368960004275
 10
-249.7371763550409
 20
-348.1368569690417
 10
-249.738132708717
 20
-348.1368188659918
 10
-249.7390846767401
 20
-348.1367816912779
 10
-249.7400322591103
 20
-348.1367454448998
 10
-249.7409754558275
 20
-348.1367101268577
 10
-249.7419142668917
 20
-348.1366757371516
 10
-249.742848692303
 20
-348.1366422757813
 10
-249.7437787320614
 20
-348.136609742747
 10
-249.7447043861668
 20
-348.1365781380488
 10
-249.7456256546193
 20
-348.1365474616864
 10
-249.7465425374187
 20
-348.13651771366
 10
-249.7474550345653
 20
-348.1364888939693
 10
-249.7483631460589
 20
-348.1364610026148
 10
-249.7492668718995
 20
-348.1364340395962
 10
-249.7501662120871
 20
-348.1364080049136
 10
-249.7510611666219
 20
-348.1363828985668
 10
-249.7519517355036
 20
-348.136358720556
 10
-249.7528379187325
 20
-348.1363354708812
 10
-249.7537197163083
 20
-348.1363131495422
 10
-249.7545971282312
 20
-348.1362917565392
 10
-249.7554701545012
 20
-348.1362712918723
 10
-249.7563387951182
 20
-348.1362517555411
 10
-249.7572030500823
 20
-348.136233147546
 10
-249.7580629193933
 20
-348.1362154678868
 10
-249.7589184030515
 20
-348.1361987165634
 10
-249.7597695010567
 20
-348.1361828935761
 10
-249.7606162134089
 20
-348.1361679989247
 10
-249.7614585401082
 20
-348.1361540326092
 10
-249.7622964811545
 20
-348.1361409946297
 10
-249.7631300365479
 20
-348.1361288849861
 10
-249.7639592062883
 20
-348.1361177036785
 10
-249.7647839903758
 20
-348.1361074507068
 10
-249.7656043888103
 20
-348.1360981260711
 10
-249.7664204015919
 20
-348.1360897297713
 10
-249.7672320287205
 20
-348.1360822618074
 10
-249.7680392701961
 20
-348.1360757221794
 10
-249.7688421260188
 20
-348.1360701108874
 10
-249.7688421260188
 20
-348.1360701108874
 10
-249.7716789668122
 20
-348.1360701108874
  0
ARC
  5
8F2
330
96E
100
AcDbEntity
  8
DATA
  6
Continuous
 62
     7
100
AcDbCircle
 10
-255.2
 20
-345.7999999999999
 30
0.0
 40
1.0
100
AcDbArc
 50
90.0
 51
180.0
  0
LINE
  5
8F3
330
96E
100
AcDbEntity
  8
DATA
  6
Continuous
 62
     7
100
AcDbLine
 10
-256.2000000000001
 20
-354.2000000000001
 30
0.0
 11
-256.2000000000001
 21
-345.7999999999999
 31
0.0
  0
ARC
  5
8F4
330
96E
100
AcDbEntity
  8
DATA
  6
Continuous
 62
     7
100
AcDbCircle
 10
-255.2
 20
-354.2000000000001
 30
0.0
 40
1.0
100
AcDbArc
 50
180.0
 51
270.0
  0
LINE
  5
8F5
330
96E
100
AcDbEntity
  8
DATA
  6
Continuous
 62
     7
100
AcDbLine
 10
-244.7999999999999
 20
-355.2000000000001
 30
0.0
 11
-255.2
 21
-355.2000000000001
 31
0.0
  0
ARC
  5
8F6
330
96E
100
AcDbEntity
  8
DATA
  6
Continuous
 62
     7
100
AcDbCircle
 10
-244.7999999999999
 20
-354.2000000000001
 30
0.0
 40
1.0
100
AcDbArc
 50
270.0
 51
0.0
  0
LINE
  5
8F7
330
96E
100
AcDbEntity
  8
DATA
  6
Continuous
 62
     7
100
AcDbLine
 10
-243.8
 20
-345.7999999999999
 30
0.0
 11
-243.8
 21
-354.2000000000001
 31
0.0
  0
LINE
  5
8F8
330
96E
100
AcDbEntity
  8
DATA
  6
Continuous
 62
     7
100
AcDbLine
 10
-255.2
 20
-344.7999999999999
 30
0.0
 11
-244.7999999999999
 21
-344.7999999999999
 31
0.0
  0
ARC
  5
8F9
330
96E
100
AcDbEntity
  8
DATA
  6
Continuous
 62
     7
100
AcDbCircle
 10
-244.7999999999999
 20
-345.7999999999999
 30
0.0
 40
1.0
100
AcDbArc
 50
0.0
 51
90.0
  0
LINE
  5
8FA
330
96E
100
AcDbEntity
  8
DATA
  6
Continuous
 62
     7
100
AcDbLine
 10
-154.3426301211314
 20
-344.7999999999999
 30
0.0
 11
-153.8426301211313
 21
-344.7999999999999
 31
0.0
  0
LINE
  5
8FB
330
96E
100
AcDbEntity
  8
DATA
  6
Continuous
 62
     7
100
AcDbLine
 10
-154.3426301211314
 20
-355.2000000000001
 30
0.0
 11
-153.8426301211313
 21
-355.2000000000001
 31
0.0
  0
ARC
  5
8FC
330
96E
100
AcDbEntity
  8
DATA
  6
Continuous
 62
     7
100
AcDbCircle
 10
-145.5349897638179
 20
-350.0
 30
0.0
 40
10.22812439618223
100
AcDbArc
 50
149.4425465687028
 51
210.5574534312971
  0
TEXT
  5
8FD
330
96E
100
AcDbEntity
  8
DATA
 62
     7
100
AcDbText
 10
-221.240990306713
 20
-106.7868381076389
 30
0.0
 40
13.57367621527778
  1
C型 サポート金具
 41
0.7
 72
     1
 11
-175.0
 21
-100.0
 31
0.0
100
AcDbText
 73
     2
  0
ENDSEC
  0
SECTION
  2
OBJECTS
  0
DICTIONARY
  5
90B
330
0
100
AcDbDictionary
281
     1
  3
ACAD_CIP_PREVIOUS_PRODUCT_INFO
350
987
  3
ACAD_COLOR
350
961
  3
ACAD_DETAILVIEWSTYLE
350
968
  3
ACAD_GROUP
350
90C
  3
ACAD_LAYOUT
350
960
  3
ACAD_MATERIAL
350
90F
  3
ACAD_MLEADERSTYLE
350
964
  3
ACAD_MLINESTYLE
350
95D
  3
ACAD_PLOTSETTINGS
350
95F
  3
ACAD_PLOTSTYLENAME
350
90D
  3
ACAD_SCALELIST
350
941
  3
ACAD_SECTIONVIEWSTYLE
350
966
  3
ACAD_TABLESTYLE
350
962
  3
ACAD_VISUALSTYLE
350
928
  3
ACDB_RECOMPOSE_DATA
350
99F
  3
AcDbVariableDictionary
350
992
  3
DWGPROPS
350
9A0
  0
DICTIONARY
  5
988
330
953
100
AcDbDictionary
280
     1
281
     1
  3
ADSK_XREC_LAYER_RECONCILED
360
989
  0
DICTIONARY
  5
98A
330
972
100
AcDbDictionary
280
     1
281
     1
  3
ADSK_XREC_LAYER_RECONCILED
360
98B
  0
DICTIONARY
  5
98C
330
97E
100
AcDbDictionary
280
     1
281
     1
  3
ADSK_XREC_LAYER_RECONCILED
360
98D
  0
DICTIONARY
  5
98E
330
980
100
AcDbDictionary
280
     1
281
     1
  3
ADSK_XREC_LAYER_RECONCILED
360
98F
  0
DICTIONARY
  5
990
330
981
100
AcDbDictionary
280
     1
281
     1
  3
ADSK_XREC_LAYER_RECONCILED
360
991
  0
XRECORD
  5
987
102
{ACAD_REACTORS
330
90B
102
}
330
90B
100
AcDbXrecord
280
     1
300
ACDLT
300
2017
300
ACDLT_F_S
  0
DICTIONARY
  5
961
102
{ACAD_REACTORS
330
90B
102
}
330
90B
100
AcDbDictionary
281
     1
  0
DICTIONARY
  5
968
102
{ACAD_REACTORS
330
90B
102
}
330
90B
100
AcDbDictionary
281
     1
  3
Imperial24
350
969
  0
DICTIONARY
  5
90C
102
{ACAD_REACTORS
330
90B
102
}
330
90B
100
AcDbDictionary
281
     1
  0
DICTIONARY
  5
960
102
{ACAD_REACTORS
330
90B
102
}
330
90B
100
AcDbDictionary
281
     1
  3
Model
350
971
  3
レイアウト1
350
96D
  0
DICTIONARY
  5
90F
102
{ACAD_REACTORS
330
90B
102
}
330
90B
100
AcDbDictionary
281
     1
  3
ByBlock
350
918
  3
ByLayer
350
910
  3
Global
350
920
  0
DICTIONARY
  5
964
102
{ACAD_REACTORS
330
90B
102
}
330
90B
100
AcDbDictionary
281
     1
  3
Standard
350
965
  0
DICTIONARY
  5
95D
102
{ACAD_REACTORS
330
90B
102
}
330
90B
100
AcDbDictionary
281
     1
  3
Standard
350
95E
  0
DICTIONARY
  5
95F
102
{ACAD_REACTORS
330
90B
102
}
330
90B
100
AcDbDictionary
281
     1
  0
ACDBDICTIONARYWDFLT
  5
90D
102
{ACAD_REACTORS
330
90B
102
}
330
90B
100
AcDbDictionary
281
     1
  3
Normal
350
90E
100
AcDbDictionaryWithDefault
340
90E
  0
DICTIONARY
  5
941
102
{ACAD_REACTORS
330
90B
102
}
330
90B
100
AcDbDictionary
281
     1
  3
A0
350
942
  3
A1
350
943
  3
A2
350
944
  3
A3
350
945
  3
A4
350
946
  3
A5
350
947
  3
A6
350
948
  3
A7
350
949
  3
A8
350
94A
  3
A9
350
94B
  3
B0
350
94C
  3
B1
350
94D
  3
B2
350
94E
  3
B3
350
94F
  3
B4
350
950
  3
B5
350
951
  3
B6
350
952
  0
DICTIONARY
  5
966
102
{ACAD_REACTORS
330
90B
102
}
330
90B
100
AcDbDictionary
281
     1
  3
Imperial24
350
967
  0
DICTIONARY
  5
962
102
{ACAD_REACTORS
330
90B
102
}
330
90B
100
AcDbDictionary
281
     1
  3
Standard
350
963
  0
DICTIONARY
  5
928
102
{ACAD_REACTORS
330
90B
102
}
330
90B
100
AcDbDictionary
281
     1
  3
2dWireframe
350
92E
  3
Basic
350
92D
  3
Brighten
350
934
  3
ColorChange
350
938
  3
Conceptual
350
931
  3
Dim
350
933
  3
EdgeColorOff
350
940
  3
Facepattern
350
937
  3
Flat
350
929
  3
FlatWithEdges
350
92A
  3
Gouraud
350
92B
  3
GouraudWithEdges
350
92C
  3
Hidden
350
930
  3
JitterOff
350
93E
  3
Linepattern
350
936
  3
OverhangOff
350
93F
  3
Realistic
350
932
  3
Shaded
350
93D
  3
Shaded with edges
350
93C
  3
Shades of Gray
350
939
  3
Sketchy
350
93A
  3
Thicken
350
935
  3
Wireframe
350
92F
  3
X-Ray
350
93B
  0
XRECORD
  5
99F
102
{ACAD_REACTORS
330
90B
102
}
330
90B
100
AcDbXrecord
280
     1
 90
        1
330
963
  0
DICTIONARY
  5
992
102
{ACAD_REACTORS
330
90B
102
}
330
90B
100
AcDbDictionary
281
     1
  3
CANNOSCALE
350
997
  3
CMLEADERSTYLE
350
994
  3
CTABLESTYLE
350
993
  3
CVIEWDETAILSTYLE
350
995
  3
CVIEWSECTIONSTYLE
350
996
  3
DIMASSOC
350
99A
  3
INDEXCTL
350
999
  3
SORTENTS
350
998
  3
XCLIPFRAME
350
99B
  0
XRECORD
  5
9A0
102
{ACAD_REACTORS
330
90B
102
}
330
90B
100
AcDbXrecord
280
     1
  1
DWGPROPS COOKIE
  2

  3

  4

  6

  7

  8
sasaki_n
  9

300
=
301
=
302
=
303
=
304
=
305
=
306
=
307
=
308
=
309
=
 40
0.0003009259259259
 41
2457823.432094908
 42
2457823.557824074
  1

 90
        0
  0
XRECORD
  5
989
102
{ACAD_REACTORS
330
988
102
}
330
988
100
AcDbXrecord
280
     1
290
     1
  0
XRECORD
  5
98B
102
{ACAD_REACTORS
330
98A
102
}
330
98A
100
AcDbXrecord
280
     1
290
     1
  0
XRECORD
  5
98D
102
{ACAD_REACTORS
330
98C
102
}
330
98C
100
AcDbXrecord
280
     1
290
     1
  0
XRECORD
  5
98F
102
{ACAD_REACTORS
330
98E
102
}
330
98E
100
AcDbXrecord
280
     1
290
     1
  0
XRECORD
  5
991
102
{ACAD_REACTORS
330
990
102
}
330
990
100
AcDbXrecord
280
     1
290
     1
  0
ACDBDETAILVIEWSTYLE
  5
969
102
{ACAD_XDICTIONARY
360
9D8
102
}
102
{ACAD_REACTORS
330
968
102
}
330
968
100
AcDbModelDocViewStyle
 70
     0
  3
Imperial24
290
     0
100
AcDbDetailViewStyle
 70
     0
 71
     0
 90
        3
 71
     1
340
954
 40
0.24
340
0
 40
0.24
300

 40
0.36
280
     3
 71
     2
340
95B
 90
       25
 71
     3
340
954
 40
0.24
 90
        1
 40
0.75
 90
        1
300
%<\AcVar ViewType \f "%tc1">% %<\AcVar ViewDetailId>%\PSCALE %<\AcVar ViewScale \f "%sn">%
 71
     4
340
95B
 90
       25
340
95B
 90
       25
280
     0
  0
LAYOUT
  5
971
102
{ACAD_XDICTIONARY
360
9DC
102
}
102
{ACAD_REACTORS
330
960
102
}
330
960
100
AcDbPlotSettings
  1

  2
DocuPrint 3000-2
  4

  6

 40
0.0
 41
0.0
 42
0.0
 43
0.0
 44
0.0
 45
0.0
 46
0.0
 47
0.0
 48
0.0
 49
0.0
140
0.0
141
0.0
142
1.0
143
1.0
 70
  1712
 72
     0
 73
     0
 74
     0
  7

 75
     0
147
1.0
148
0.0
149
0.0
100
AcDbLayout
  1
Model
 70
     1
 71
     0
 10
0.0
 20
0.0
 11
12.0
 21
9.0
 12
0.0
 22
0.0
 32
0.0
 14
0.0
 24
0.0
 34
0.0
 15
0.0
 25
0.0
 35
0.0
146
0.0
 13
0.0
 23
0.0
 33
0.0
 16
1.0
 26
0.0
 36
0.0
 17
0.0
 27
1.0
 37
0.0
 76
     0
330
96E
331
973
  0
LAYOUT
  5
96D
102
{ACAD_XDICTIONARY
360
9DA
102
}
102
{ACAD_REACTORS
330
960
102
}
330
960
100
AcDbPlotSettings
  1

  2
DocuPrint 3000-2
  4

  6

 40
0.0
 41
0.0
 42
0.0
 43
0.0
 44
0.0
 45
0.0
 46
0.0
 47
0.0
 48
0.0
 49
0.0
140
0.0
141
0.0
142
1.0
143
1.0
 70
   688
 72
     0
 73
     0
 74
     5
  7

 75
    16
147
1.0
148
0.0
149
0.0
100
AcDbLayout
  1
レイアウト1
 70
     0
 71
     1
 10
0.0
 20
0.0
 11
12.0
 21
9.0
 12
0.0
 22
0.0
 32
0.0
 14
1.000000000000000E+20
 24
1.000000000000000E+20
 34
1.000000000000000E+20
 15
-1.000000000000000E+20
 25
-1.000000000000000E+20
 35
-1.000000000000000E+20
146
0.0
 13
0.0
 23
0.0
 33
0.0
 16
1.0
 26
0.0
 36
0.0
 17
0.0
 27
1.0
 37
0.0
 76
     0
330
96A
  0
MATERIAL
  5
918
102
{ACAD_XDICTIONARY
360
919
102
}
102
{ACAD_REACTORS
330
90F
102
}
330
90F
100
AcDbMaterial
  1
ByBlock
 72
     0
 43
0.0208333333333333
 43
0.0
 43
0.0
 43
0.0
 43
0.0
 43
0.0208333333333333
 43
0.0
 43
0.0
 43
0.0
 43
0.0
 43
1.0
 43
0.0
 43
0.0
 43
0.0
 43
0.0
 43
1.0
 77
     0
 47
0.0208333333333333
 47
0.0
 47
0.0
 47
0.0
 47
0.0
 47
0.0208333333333333
 47
0.0
 47
0.0
 47
0.0
 47
0.0
 47
1.0
 47
0.0
 47
0.0
 47
0.0
 47
0.0
 47
1.0
171
     0
 49
0.0208333333333333
 49
0.0
 49
0.0
 49
0.0
 49
0.0
 49
0.0208333333333333
 49
0.0
 49
0.0
 49
0.0
 49
0.0
 49
1.0
 49
0.0
 49
0.0
 49
0.0
 49
0.0
 49
1.0
175
     0
142
0.0208333333333333
142
0.0
142
0.0
142
0.0
142
0.0
142
0.0208333333333333
142
0.0
142
0.0
142
0.0
142
0.0
142
1.0
142
0.0
142
0.0
142
0.0
142
0.0
142
1.0
179
     0
144
0.0208333333333333
144
0.0
144
0.0
144
0.0
144
0.0
144
0.0208333333333333
144
0.0
144
0.0
144
0.0
144
0.0
144
1.0
144
0.0
144
0.0
144
0.0
144
0.0
144
1.0
147
0.0208333333333333
147
0.0
147
0.0
147
0.0
147
0.0
147
0.0208333333333333
147
0.0
147
0.0
147
0.0
147
0.0
147
1.0
147
0.0
147
0.0
147
0.0
147
0.0
147
1.0
  0
MATERIAL
  5
910
102
{ACAD_XDICTIONARY
360
911
102
}
102
{ACAD_REACTORS
330
90F
102
}
330
90F
100
AcDbMaterial
  1
ByLayer
 72
     0
 43
0.0208333333333333
 43
0.0
 43
0.0
 43
0.0
 43
0.0
 43
0.0208333333333333
 43
0.0
 43
0.0
 43
0.0
 43
0.0
 43
1.0
 43
0.0
 43
0.0
 43
0.0
 43
0.0
 43
1.0
 77
     0
 47
0.0208333333333333
 47
0.0
 47
0.0
 47
0.0
 47
0.0
 47
0.0208333333333333
 47
0.0
 47
0.0
 47
0.0
 47
0.0
 47
1.0
 47
0.0
 47
0.0
 47
0.0
 47
0.0
 47
1.0
171
     0
 49
0.0208333333333333
 49
0.0
 49
0.0
 49
0.0
 49
0.0
 49
0.0208333333333333
 49
0.0
 49
0.0
 49
0.0
 49
0.0
 49
1.0
 49
0.0
 49
0.0
 49
0.0
 49
0.0
 49
1.0
175
     0
142
0.0208333333333333
142
0.0
142
0.0
142
0.0
142
0.0
142
0.0208333333333333
142
0.0
142
0.0
142
0.0
142
0.0
142
1.0
142
0.0
142
0.0
142
0.0
142
0.0
142
1.0
179
     0
144
0.0208333333333333
144
0.0
144
0.0
144
0.0
144
0.0
144
0.0208333333333333
144
0.0
144
0.0
144
0.0
144
0.0
144
1.0
144
0.0
144
0.0
144
0.0
144
0.0
144
1.0
147
0.0208333333333333
147
0.0
147
0.0
147
0.0
147
0.0
147
0.0208333333333333
147
0.0
147
0.0
147
0.0
147
0.0
147
1.0
147
0.0
147
0.0
147
0.0
147
0.0
147
1.0
  0
MATERIAL
  5
920
102
{ACAD_XDICTIONARY
360
921
102
}
102
{ACAD_REACTORS
330
90F
102
}
330
90F
100
AcDbMaterial
  1
Global
 72
     0
 43
0.0208333333333333
 43
0.0
 43
0.0
 43
0.0
 43
0.0
 43
0.0208333333333333
 43
0.0
 43
0.0
 43
0.0
 43
0.0
 43
1.0
 43
0.0
 43
0.0
 43
0.0
 43
0.0
 43
1.0
 77
     0
 47
0.0208333333333333
 47
0.0
 47
0.0
 47
0.0
 47
0.0
 47
0.0208333333333333
 47
0.0
 47
0.0
 47
0.0
 47
0.0
 47
1.0
 47
0.0
 47
0.0
 47
0.0
 47
0.0
 47
1.0
171
     0
 49
0.0208333333333333
 49
0.0
 49
0.0
 49
0.0
 49
0.0
 49
0.0208333333333333
 49
0.0
 49
0.0
 49
0.0
 49
0.0
 49
1.0
 49
0.0
 49
0.0
 49
0.0
 49
0.0
 49
1.0
175
     0
142
0.0208333333333333
142
0.0
142
0.0
142
0.0
142
0.0
142
0.0208333333333333
142
0.0
142
0.0
142
0.0
142
0.0
142
1.0
142
0.0
142
0.0
142
0.0
142
0.0
142
1.0
179
     0
144
0.0208333333333333
144
0.0
144
0.0
144
0.0
144
0.0
144
0.0208333333333333
144
0.0
144
0.0
144
0.0
144
0.0
144
1.0
144
0.0
144
0.0
144
0.0
144
0.0
144
1.0
147
0.0208333333333333
147
0.0
147
0.0
147
0.0
147
0.0
147
0.0208333333333333
147
0.0
147
0.0
147
0.0
147
0.0
147
1.0
147
0.0
147
0.0
147
0.0
147
0.0
147
1.0
  0
MLEADERSTYLE
  5
965
102
{ACAD_REACTORS
330
964
102
}
330
964
100
AcDbMLeaderStyle
170
     2
171
     1
172
     0
 90
        2
 40
0.0
 41
0.0
173
     1
 91
-1056964608
340
959
 92
       -2
290
     1
 42
0.09
291
     1
 43
0.36
  3
Standard
 44
0.18
300

342
954
174
     1
178
     6
175
     1
176
     0
 93
-1056964608
 45
0.18
292
     0
297
     0
 46
0.18
 94
-1056964608
 47
1.0
 49
1.0
140
1.0
293
     1
141
0.0
294
     1
177
     0
142
1.0
295
     0
296
     0
143
0.125
1001
ACAD_MLEADERVER
1070
     2
  0
MLINESTYLE
  5
95E
102
{ACAD_REACTORS
330
95D
102
}
330
95D
100
AcDbMlineStyle
  2
STANDARD
 70
     0
  3

 62
   256
 51
90.0
 52
90.0
 71
     2
 49
0.5
 62
   256
  6
BYLAYER
 49
-0.5
 62
   256
  6
BYLAYER
  0
ACDBPLACEHOLDER
  5
90E
102
{ACAD_REACTORS
330
90D
102
}
330
90D
  0
SCALE
  5
942
102
{ACAD_REACTORS
330
941
102
}
330
941
100
AcDbScale
 70
     0
300
1:1
140
1.0
141
1.0
290
     1
  0
SCALE
  5
943
102
{ACAD_REACTORS
330
941
102
}
330
941
100
AcDbScale
 70
     0
300
1/128" = 1'-0"
140
0.0078125
141
12.0
290
     0
  0
SCALE
  5
944
102
{ACAD_REACTORS
330
941
102
}
330
941
100
AcDbScale
 70
     0
300
1/64" = 1'-0"
140
0.015625
141
12.0
290
     0
  0
SCALE
  5
945
102
{ACAD_REACTORS
330
941
102
}
330
941
100
AcDbScale
 70
     0
300
1/32" = 1'-0"
140
0.03125
141
12.0
290
     0
  0
SCALE
  5
946
102
{ACAD_REACTORS
330
941
102
}
330
941
100
AcDbScale
 70
     0
300
1/16" = 1'-0"
140
0.0625
141
12.0
290
     0
  0
SCALE
  5
947
102
{ACAD_REACTORS
330
941
102
}
330
941
100
AcDbScale
 70
     0
300
3/32" = 1'-0"
140
0.09375
141
12.0
290
     0
  0
SCALE
  5
948
102
{ACAD_REACTORS
330
941
102
}
330
941
100
AcDbScale
 70
     0
300
1/8" = 1'-0"
140
0.125
141
12.0
290
     0
  0
SCALE
  5
949
102
{ACAD_REACTORS
330
941
102
}
330
941
100
AcDbScale
 70
     0
300
3/16" = 1'-0"
140
0.1875
141
12.0
290
     0
  0
SCALE
  5
94A
102
{ACAD_REACTORS
330
941
102
}
330
941
100
AcDbScale
 70
     0
300
1/4" = 1'-0"
140
0.25
141
12.0
290
     0
  0
SCALE
  5
94B
102
{ACAD_REACTORS
330
941
102
}
330
941
100
AcDbScale
 70
     0
300
3/8" = 1'-0"
140
0.375
141
12.0
290
     0
  0
SCALE
  5
94C
102
{ACAD_REACTORS
330
941
102
}
330
941
100
AcDbScale
 70
     0
300
1/2" = 1'-0"
140
0.5
141
12.0
290
     0
  0
SCALE
  5
94D
102
{ACAD_REACTORS
330
941
102
}
330
941
100
AcDbScale
 70
     0
300
3/4" = 1'-0"
140
0.75
141
12.0
290
     0
  0
SCALE
  5
94E
102
{ACAD_REACTORS
330
941
102
}
330
941
100
AcDbScale
 70
     0
300
1" = 1'-0"
140
1.0
141
12.0
290
     0
  0
SCALE
  5
94F
102
{ACAD_REACTORS
330
941
102
}
330
941
100
AcDbScale
 70
     0
300
1-1/2" = 1'-0"
140
1.5
141
12.0
290
     0
  0
SCALE
  5
950
102
{ACAD_REACTORS
330
941
102
}
330
941
100
AcDbScale
 70
     0
300
3" = 1'-0"
140
3.0
141
12.0
290
     0
  0
SCALE
  5
951
102
{ACAD_REACTORS
330
941
102
}
330
941
100
AcDbScale
 70
     0
300
6" = 1'-0"
140
6.0
141
12.0
290
     0
  0
SCALE
  5
952
102
{ACAD_REACTORS
330
941
102
}
330
941
100
AcDbScale
 70
     0
300
1'-0" = 1'-0"
140
12.0
141
12.0
290
     0
  0
ACDBSECTIONVIEWSTYLE
  5
967
102
{ACAD_XDICTIONARY
360
9D6
102
}
102
{ACAD_REACTORS
330
966
102
}
330
966
100
AcDbModelDocViewStyle
 70
     0
  3
Imperial24
290
     0
100
AcDbSectionViewStyle
 70
     0
 71
     0
 90
       78
 71
     1
340
954
 40
0.24
340
0
340
0
 40
0.24
300
I, O, Q, S, X, Z
 40
0.48
 90
        3
 40
0.18
 90
        1
 71
     2
340
95B
 90
       25
340
95B
 90
       50
 40
0.24
 40
0.0
 40
0.24
 71
     3
340
954
 40
0.24
 90
        1
 40
0.75
 90
        1
300
%<\AcVar ViewType \f "%tc1">% %<\AcVar ViewSectionStartId>%-%<\AcVar ViewSectionEndId>%\PSCALE %<\AcVar ViewScale \f "%sn">%
 71
     4
300
ANSI31
 40
1.0
 90
        0
290
     0
290
     0
 90
        6
 40
0.0
 40
1.570796326794896
 40
0.2617993877991494
 40
1.308996938995747
 40
-0.2617993877991494
 40
1.832595714594046
  0
TABLESTYLE
  5
963
102
{ACAD_XDICTIONARY
360
99D
102
}
102
{ACAD_REACTORS
330
962
102
}
330
962
100
AcDbTableStyle
  3
Standard
 70
     0
 71
     0
 40
0.06
 41
0.06
280
     0
281
     0
  7
STANDARD
140
0.18
170
     2
 62
     0
 63
     7
283
     0
274
    -2
284
     1
 64
     0
275
    -2
285
     1
 65
     0
276
    -2
286
     1
 66
     0
277
    -2
287
     1
 67
     0
278
    -2
288
     1
 68
     0
279
    -2
289
     1
 69
     0
  7
STANDARD
140
0.25
170
     5
 62
     0
 63
     7
283
     0
274
    -2
284
     1
 64
     0
275
    -2
285
     1
 65
     0
276
    -2
286
     1
 66
     0
277
    -2
287
     1
 67
     0
278
    -2
288
     1
 68
     0
279
    -2
289
     1
 69
     0
  7
STANDARD
140
0.18
170
     5
 62
     0
 63
     7
283
     0
274
    -2
284
     1
 64
     0
275
    -2
285
     1
 65
     0
276
    -2
286
     1
 66
     0
277
    -2
287
     1
 67
     0
278
    -2
288
     1
 68
     0
279
    -2
289
     1
 69
     0
  0
VISUALSTYLE
  5
92E
102
{ACAD_XDICTIONARY
360
9AE
102
}
102
{ACAD_REACTORS
330
928
102
}
330
928
100
AcDbVisualStyle
  2
2dWireframe
 70
     4
 71
     0
 72
     2
 73
     0
 90
        0
 40
-0.6
 41
-30.0
 62
     5
 63
     7
 74
     1
 91
        4
 64
     7
 65
   257
 75
     1
175
     1
 42
1.0
 92
        0
 66
   257
 43
1.0
 76
     1
 77
     6
 78
     2
 67
     7
 79
     5
170
     0
171
     0
290
     0
174
     0
 93
        1
 44
0.0
173
     0
291
     0
 45
0.0
1001
ACAD
1000
AcDbSavedByObjectVersion
1070
     0
  0
VISUALSTYLE
  5
92D
102
{ACAD_XDICTIONARY
360
9AC
102
}
102
{ACAD_REACTORS
330
928
102
}
330
928
100
AcDbVisualStyle
  2
Basic
 70
     7
 71
     1
 72
     0
 73
     1
 90
        0
 40
-0.6
 41
-30.0
 62
     5
 63
     7
 74
     0
 91
        4
 64
     7
 65
   257
 75
     1
175
     1
 42
1.0
 92
        8
 66
     7
 43
1.0
 76
     1
 77
     6
 78
     2
 67
     7
 79
     5
170
     0
171
     0
290
     0
174
     0
 93
        1
 44
0.0
173
     0
291
     1
 45
0.0
1001
ACAD
1000
AcDbSavedByObjectVersion
1070
     0
  0
VISUALSTYLE
  5
934
102
{ACAD_XDICTIONARY
360
9BA
102
}
102
{ACAD_REACTORS
330
928
102
}
330
928
100
AcDbVisualStyle
  2
Brighten
 70
    12
 71
     2
 72
     2
 73
     0
 90
        0
 40
-0.6
 41
-30.0
 62
     5
 63
     7
 74
     1
 91
        4
 64
     7
 65
   257
 75
     1
175
     1
 42
1.0
 92
        8
 66
     7
 43
1.0
 76
     1
 77
     6
 78
     2
 67
     7
 79
     5
170
     0
171
     0
290
     0
174
     0
 93
        1
 44
50.0
173
     0
291
     1
 45
0.0
1001
ACAD
1000
AcDbSavedByObjectVersion
1070
     0
  0
VISUALSTYLE
  5
938
102
{ACAD_XDICTIONARY
360
9C2
102
}
102
{ACAD_REACTORS
330
928
102
}
330
928
100
AcDbVisualStyle
  2
ColorChange
 70
    16
 71
     2
 72
     2
 73
     3
 90
        0
 40
-0.6
 41
-30.0
 62
     5
 63
     8
 74
     1
 91
        4
 64
     7
 65
   257
 75
     1
175
     1
 42
1.0
 92
        8
 66
     8
 43
1.0
 76
     1
 77
     6
 78
     2
 67
     7
 79
     5
170
     0
171
     0
290
     0
174
     0
 93
        1
 44
0.0
173
     0
291
     1
 45
0.0
1001
ACAD
1000
AcDbSavedByObjectVersion
1070
     0
  0
VISUALSTYLE
  5
931
102
{ACAD_XDICTIONARY
360
9B4
102
}
102
{ACAD_REACTORS
330
928
102
}
330
928
100
AcDbVisualStyle
  2
Conceptual
 70
     9
 71
     3
 72
     2
 73
     0
 90
        0
 40
-0.6
 41
-30.0
 62
     5
 63
     7
 74
     2
 91
        2
 64
     7
 65
   257
 75
     1
175
     1
 42
179.0
 92
        8
 66
     7
 43
1.0
 76
     1
 77
     6
 78
     2
 67
     7
 79
     3
170
     0
171
     0
290
     0
174
     0
 93
        1
 44
0.0
173
     0
291
     0
 45
0.0
1001
ACAD
1000
AcDbSavedByObjectVersion
1070
     0
  0
VISUALSTYLE
  5
933
102
{ACAD_XDICTIONARY
360
9B8
102
}
102
{ACAD_REACTORS
330
928
102
}
330
928
100
AcDbVisualStyle
  2
Dim
 70
    11
 71
     2
 72
     2
 73
     0
 90
        0
 40
-0.6
 41
-30.0
 62
     5
 63
     7
 74
     1
 91
        4
 64
     7
 65
   257
 75
     1
175
     1
 42
1.0
 92
        8
 66
     7
 43
1.0
 76
     1
 77
     6
 78
     2
 67
     7
 79
     5
170
     0
171
     0
290
     0
174
     0
 93
        1
 44
-50.0
173
     0
291
     1
 45
0.0
1001
ACAD
1000
AcDbSavedByObjectVersion
1070
     0
  0
VISUALSTYLE
  5
940
102
{ACAD_XDICTIONARY
360
9D2
102
}
102
{ACAD_REACTORS
330
928
102
}
330
928
100
AcDbVisualStyle
  2
EdgeColorOff
 70
    22
 71
     2
 72
     2
 73
     0
 90
        0
 40
-0.6
 41
-30.0
 62
     5
 63
     7
 74
     1
 91
        4
 64
     7
 65
   257
 75
     1
175
     1
 42
1.0
 92
        8
 66
     7
 43
1.0
 76
     1
 77
     6
 78
     2
 67
     7
 79
     5
170
     0
171
     0
290
     0
174
     0
 93
        1
 44
0.0
173
     0
291
     1
 45
0.0
1001
ACAD
1000
AcDbSavedByObjectVersion
1070
     0
  0
VISUALSTYLE
  5
937
102
{ACAD_XDICTIONARY
360
9C0
102
}
102
{ACAD_REACTORS
330
928
102
}
330
928
100
AcDbVisualStyle
  2
Facepattern
 70
    15
 71
     2
 72
     2
 73
     0
 90
        0
 40
-0.6
 41
-30.0
 62
     5
 63
     7
 74
     1
 91
        4
 64
     7
 65
   257
 75
     1
175
     1
 42
1.0
 92
        8
 66
     7
 43
1.0
 76
     1
 77
     6
 78
     2
 67
     7
 79
     5
170
     0
171
     0
290
     0
174
     0
 93
        1
 44
0.0
173
     0
291
     1
 45
0.0
1001
ACAD
1000
AcDbSavedByObjectVersion
1070
     0
  0
VISUALSTYLE
  5
929
102
{ACAD_XDICTIONARY
360
9A4
102
}
102
{ACAD_REACTORS
330
928
102
}
330
928
100
AcDbVisualStyle
  2
Flat
 70
     0
 71
     2
 72
     1
 73
     1
 90
        2
 40
-0.6
 41
30.0
 62
     5
 63
     7
 74
     0
 91
        0
 64
     7
 65
   257
 75
     1
175
     1
 42
1.0
 92
        8
 66
     7
 43
1.0
 76
     1
 77
     6
 78
     2
 67
     7
 79
     5
170
     0
171
     0
290
     0
174
     0
 93
       13
 44
0.0
173
     0
291
     1
 45
0.0
1001
ACAD
1000
AcDbSavedByObjectVersion
1070
     0
  0
VISUALSTYLE
  5
92A
102
{ACAD_XDICTIONARY
360
9A6
102
}
102
{ACAD_REACTORS
330
928
102
}
330
928
100
AcDbVisualStyle
  2
FlatWithEdges
 70
     1
 71
     2
 72
     1
 73
     1
 90
        2
 40
-0.6
 41
30.0
 62
     5
 63
     7
 74
     1
 91
        0
 64
     7
 65
   257
 75
     1
175
     1
 42
1.0
 92
        0
 66
   257
 43
1.0
 76
     1
 77
     6
 78
     2
 67
     7
 79
     5
170
     0
171
     0
290
     0
174
     0
 93
       13
 44
0.0
173
     0
291
     1
 45
0.0
1001
ACAD
1000
AcDbSavedByObjectVersion
1070
     0
  0
VISUALSTYLE
  5
92B
102
{ACAD_XDICTIONARY
360
9A8
102
}
102
{ACAD_REACTORS
330
928
102
}
330
928
100
AcDbVisualStyle
  2
Gouraud
 70
     2
 71
     2
 72
     2
 73
     1
 90
        2
 40
-0.6
 41
30.0
 62
     5
 63
     7
 74
     0
 91
        0
 64
     7
 65
   257
 75
     1
175
     1
 42
1.0
 92
        0
 66
     7
 43
1.0
 76
     1
 77
     6
 78
     2
 67
     7
 79
     5
170
     0
171
     0
290
     0
174
     0
 93
       13
 44
0.0
173
     0
291
     1
 45
0.0
1001
ACAD
1000
AcDbSavedByObjectVersion
1070
     0
  0
VISUALSTYLE
  5
92C
102
{ACAD_XDICTIONARY
360
9AA
102
}
102
{ACAD_REACTORS
330
928
102
}
330
928
100
AcDbVisualStyle
  2
GouraudWithEdges
 70
     3
 71
     2
 72
     2
 73
     1
 90
        2
 40
-0.6
 41
30.0
 62
     5
 63
     7
 74
     1
 91
        0
 64
     7
 65
   257
 75
     1
175
     1
 42
1.0
 92
        0
 66
   257
 43
1.0
 76
     1
 77
     6
 78
     2
 67
     7
 79
     5
170
     0
171
     0
290
     0
174
     0
 93
       13
 44
0.0
173
     0
291
     1
 45
0.0
1001
ACAD
1000
AcDbSavedByObjectVersion
1070
     0
  0
VISUALSTYLE
  5
930
102
{ACAD_XDICTIONARY
360
9B2
102
}
102
{ACAD_REACTORS
330
928
102
}
330
928
100
AcDbVisualStyle
  2
Hidden
 70
     6
 71
     1
 72
     2
 73
     2
 90
        0
 40
-0.6
 41
-30.0
 62
     5
 63
     7
 74
     2
 91
        2
 64
     7
 65
   257
 75
     2
175
     1
 42
40.0
 92
        0
 66
   257
 43
1.0
 76
     1
 77
     6
 78
     2
 67
     7
 79
     3
170
     0
171
     0
290
     0
174
     0
 93
        1
 44
0.0
173
     0
291
     0
 45
0.0
1001
ACAD
1000
AcDbSavedByObjectVersion
1070
     0
  0
VISUALSTYLE
  5
93E
102
{ACAD_XDICTIONARY
360
9CE
102
}
102
{ACAD_REACTORS
330
928
102
}
330
928
100
AcDbVisualStyle
  2
JitterOff
 70
    20
 71
     2
 72
     2
 73
     0
 90
        0
 40
-0.6
 41
-30.0
 62
     5
 63
     7
 74
     1
 91
        4
 64
     7
 65
   257
 75
     1
175
     1
 42
1.0
 92
       10
 66
     7
 43
1.0
 76
     1
 77
     6
 78
     2
 67
     7
 79
     5
170
     0
171
     0
290
     0
174
     0
 93
        1
 44
0.0
173
     0
291
     1
 45
0.0
1001
ACAD
1000
AcDbSavedByObjectVersion
1070
     0
  0
VISUALSTYLE
  5
936
102
{ACAD_XDICTIONARY
360
9BE
102
}
102
{ACAD_REACTORS
330
928
102
}
330
928
100
AcDbVisualStyle
  2
Linepattern
 70
    14
 71
     2
 72
     2
 73
     0
 90
        0
 40
-0.6
 41
-30.0
 62
     5
 63
     7
 74
     1
 91
        4
 64
     7
 65
   257
 75
     7
175
     7
 42
1.0
 92
        8
 66
     7
 43
1.0
 76
     1
 77
     6
 78
     2
 67
     7
 79
     5
170
     0
171
     0
290
     0
174
     0
 93
        1
 44
0.0
173
     0
291
     1
 45
0.0
1001
ACAD
1000
AcDbSavedByObjectVersion
1070
     0
  0
VISUALSTYLE
  5
93F
102
{ACAD_XDICTIONARY
360
9D0
102
}
102
{ACAD_REACTORS
330
928
102
}
330
928
100
AcDbVisualStyle
  2
OverhangOff
 70
    21
 71
     2
 72
     2
 73
     0
 90
        0
 40
-0.6
 41
-30.0
 62
     5
 63
     7
 74
     1
 91
        4
 64
     7
 65
   257
 75
     1
175
     1
 42
1.0
 92
        9
 66
     7
 43
1.0
 76
     1
 77
     6
 78
     2
 67
     7
 79
     5
170
     0
171
     0
290
     0
174
     0
 93
        1
 44
0.0
173
     0
291
     1
 45
0.0
1001
ACAD
1000
AcDbSavedByObjectVersion
1070
     0
  0
VISUALSTYLE
  5
932
102
{ACAD_XDICTIONARY
360
9B6
102
}
102
{ACAD_REACTORS
330
928
102
}
330
928
100
AcDbVisualStyle
  2
Realistic
 70
     8
 71
     2
 72
     3
 73
     0
 90
        2
 40
-0.6
 41
30.0
 62
     5
 63
     7
 74
     0
 91
        0
 64
     7
 65
   257
 75
     1
175
     1
 42
1.0
 92
        8
 66
   257
 43
1.0
 76
     1
 77
     6
 78
     2
 67
     7
 79
     3
170
     0
171
     0
290
     0
174
     0
 93
       13
 44
0.0
173
     0
291
     0
 45
0.0
1001
ACAD
1000
AcDbSavedByObjectVersion
1070
     0
  0
VISUALSTYLE
  5
93D
102
{ACAD_XDICTIONARY
360
9CC
102
}
102
{ACAD_REACTORS
330
928
102
}
330
928
100
AcDbVisualStyle
  2
Shaded
 70
    27
 71
     2
 72
     2
 73
     1
 90
        2
 40
-0.6
 41
30.0
 62
     5
 63
     7
 74
     0
 91
        4
 64
     7
 65
   257
 75
     1
175
     1
 42
1.0
 92
        8
 66
   257
 43
1.0
 76
     1
 77
     6
 78
     2
 67
     8
 79
     3
170
     0
171
     0
290
     0
174
     0
 93
        5
 44
0.0
173
     0
291
     0
 45
0.0
1001
ACAD
1000
AcDbSavedByObjectVersion
1070
     0
  0
VISUALSTYLE
  5
93C
102
{ACAD_XDICTIONARY
360
9CA
102
}
102
{ACAD_REACTORS
330
928
102
}
330
928
100
AcDbVisualStyle
  2
Shaded with edges
 70
    26
 71
     2
 72
     2
 73
     1
 90
        2
 40
-0.6
 41
30.0
 62
     5
 63
     7
 74
     1
 91
        2
 64
     7
 65
   257
 75
     2
175
     1
 42
1.0
 92
        8
 66
   257
 43
1.0
 76
     1
 77
     6
 78
     2
 67
     7
 79
     3
170
     0
171
     0
290
     0
174
     0
 93
        5
 44
0.0
173
     0
291
     0
 45
0.0
1001
ACAD
1000
AcDbSavedByObjectVersion
1070
     0
  0
VISUALSTYLE
  5
939
102
{ACAD_XDICTIONARY
360
9C4
102
}
102
{ACAD_REACTORS
330
928
102
}
330
928
100
AcDbVisualStyle
  2
Shades of Gray
 70
    23
 71
     2
 72
     2
 73
     3
 90
        0
 40
-0.6
 41
-30.0
 62
     5
 63
     7
 74
     2
 91
        2
 64
     7
 65
     7
 75
     1
175
     1
 42
40.0
 92
        8
 66
     7
 43
1.0
 76
     1
 77
     6
 78
     2
 67
     7
 79
     3
170
     0
171
     0
290
     0
174
     0
 93
        1
 44
0.0
173
     0
291
     0
 45
0.0
1001
ACAD
1000
AcDbSavedByObjectVersion
1070
     0
  0
VISUALSTYLE
  5
93A
102
{ACAD_XDICTIONARY
360
9C6
102
}
102
{ACAD_REACTORS
330
928
102
}
330
928
100
AcDbVisualStyle
  2
Sketchy
 70
    24
 71
     1
 72
     2
 73
     2
 90
        0
 40
-0.6
 41
-30.0
 62
     5
 63
     7
 74
     2
 91
        2
 64
     7
 65
     7
 75
     1
175
     1
 42
40.0
 92
       11
 66
     7
 43
1.0
 76
     1
 77
     6
 78
     2
 67
     7
 79
     6
170
     0
171
     0
290
     0
174
     0
 93
        1
 44
0.0
173
     0
291
     0
 45
0.0
1001
ACAD
1000
AcDbSavedByObjectVersion
1070
     0
  0
VISUALSTYLE
  5
935
102
{ACAD_XDICTIONARY
360
9BC
102
}
102
{ACAD_REACTORS
330
928
102
}
330
928
100
AcDbVisualStyle
  2
Thicken
 70
    13
 71
     2
 72
     2
 73
     0
 90
        0
 40
-0.6
 41
-30.0
 62
     5
 63
     7
 74
     1
 91
        4
 64
     7
 65
   257
 75
     1
175
     1
 42
1.0
 92
       12
 66
     7
 43
1.0
 76
     1
 77
     6
 78
     2
 67
     7
 79
     5
170
     0
171
     0
290
     0
174
     0
 93
        1
 44
0.0
173
     0
291
     1
 45
0.0
1001
ACAD
1000
AcDbSavedByObjectVersion
1070
     0
  0
VISUALSTYLE
  5
92F
102
{ACAD_XDICTIONARY
360
9B0
102
}
102
{ACAD_REACTORS
330
928
102
}
330
928
100
AcDbVisualStyle
  2
Wireframe
 70
     5
 71
     0
 72
     2
 73
     0
 90
        0
 40
-0.6
 41
-30.0
 62
     5
 63
     7
 74
     1
 91
        4
 64
     7
 65
   257
 75
     1
175
     1
 42
1.0
 92
        0
 66
   257
 43
1.0
 76
     1
 77
     6
 78
     2
 67
     7
 79
     3
170
     0
171
     0
290
     0
174
     0
 93
        1
 44
0.0
173
     0
291
     0
 45
0.0
1001
ACAD
1000
AcDbSavedByObjectVersion
1070
     0
  0
VISUALSTYLE
  5
93B
102
{ACAD_XDICTIONARY
360
9C8
102
}
102
{ACAD_REACTORS
330
928
102
}
330
928
100
AcDbVisualStyle
  2
X-Ray
 70
    25
 71
     2
 72
     2
 73
     1
 90
        1
 40
0.5
 41
-30.0
 62
     5
 63
     7
 74
     1
 91
        0
 64
     7
 65
   257
 75
     1
175
     1
 42
1.0
 92
        8
 66
     7
 43
1.0
 76
     1
 77
     6
 78
     2
 67
     7
 79
     3
170
     0
171
     0
290
     0
174
     0
 93
       13
 44
0.0
173
     0
291
     0
 45
0.0
1001
ACAD
1000
AcDbSavedByObjectVersion
1070
     0
  0
DICTIONARYVAR
  5
997
102
{ACAD_REACTORS
330
992
102
}
330
992
100
DictionaryVariables
280
     0
  1
1:1
  0
DICTIONARYVAR
  5
994
102
{ACAD_REACTORS
330
992
102
}
330
992
100
DictionaryVariables
280
     0
  1
STANDARD
  0
DICTIONARYVAR
  5
993
102
{ACAD_REACTORS
330
992
102
}
330
992
100
DictionaryVariables
280
     0
  1
STANDARD
  0
DICTIONARYVAR
  5
995
102
{ACAD_REACTORS
330
992
102
}
330
992
100
DictionaryVariables
280
     0
  1
Imperial24
  0
DICTIONARYVAR
  5
996
102
{ACAD_REACTORS
330
992
102
}
330
992
100
DictionaryVariables
280
     0
  1
Imperial24
  0
DICTIONARYVAR
  5
99A
102
{ACAD_REACTORS
330
992
102
}
330
992
100
DictionaryVariables
280
     0
  1
1
  0
DICTIONARYVAR
  5
999
102
{ACAD_REACTORS
330
992
102
}
330
992
100
DictionaryVariables
280
     0
  1
0
  0
DICTIONARYVAR
  5
998
102
{ACAD_REACTORS
330
992
102
}
330
992
100
DictionaryVariables
280
     0
  1
127
  0
DICTIONARYVAR
  5
99B
102
{ACAD_REACTORS
330
992
102
}
330
992
100
DictionaryVariables
280
     0
  1
2
  0
DICTIONARY
  5
9D8
330
969
100
AcDbDictionary
280
     1
281
     1
  3
ACAD_XREC_ROUNDTRIP
360
9D9
  0
DICTIONARY
  5
9DC
330
971
100
AcDbDictionary
280
     1
281
     1
  3
ACAD_XREC_ROUNDTRIP
360
9DD
  0
DICTIONARY
  5
9DA
330
96D
100
AcDbDictionary
280
     1
281
     1
  3
ACAD_XREC_ROUNDTRIP
360
9DB
  0
DICTIONARY
  5
919
330
918
100
AcDbDictionary
280
     1
281
     1
  3
ACAD_XREC_ROUNDTRIP
360
9A2
  3
BUMPTILE
360
91B
  3
DIFFUSETILE
360
91A
  3
OPACITYTILE
360
91E
  3
REFLECTIONTILE
360
91D
  3
REFRACTIONTILE
360
91F
  3
SPECULARTILE
360
91C
  0
DICTIONARY
  5
911
330
910
100
AcDbDictionary
280
     1
281
     1
  3
ACAD_XREC_ROUNDTRIP
360
9A1
  3
BUMPTILE
360
913
  3
DIFFUSETILE
360
912
  3
OPACITYTILE
360
916
  3
REFLECTIONTILE
360
915
  3
REFRACTIONTILE
360
917
  3
SPECULARTILE
360
914
  0
DICTIONARY
  5
921
330
920
100
AcDbDictionary
280
     1
281
     1
  3
ACAD_XREC_ROUNDTRIP
360
9A3
  3
BUMPTILE
360
923
  3
DIFFUSETILE
360
922
  3
OPACITYTILE
360
926
  3
REFLECTIONTILE
360
925
  3
REFRACTIONTILE
360
927
  3
SPECULARTILE
360
924
  0
DICTIONARY
  5
9D6
330
967
100
AcDbDictionary
280
     1
281
     1
  3
ACAD_XREC_ROUNDTRIP
360
9D7
  0
DICTIONARY
  5
99D
330
963
100
AcDbDictionary
280
     1
281
     1
  3
ACAD_ROUNDTRIP_2008_TABLESTYLE_CELLSTYLEMAP
360
99E
  3
ACAD_XREC_ROUNDTRIP
360
9D4
  0
DICTIONARY
  5
9AE
330
92E
100
AcDbDictionary
280
     1
281
     1
  3
ACAD_XREC_ROUNDTRIP
360
9AF
  0
DICTIONARY
  5
9AC
330
92D
100
AcDbDictionary
280
     1
281
     1
  3
ACAD_XREC_ROUNDTRIP
360
9AD
  0
DICTIONARY
  5
9BA
330
934
100
AcDbDictionary
280
     1
281
     1
  3
ACAD_XREC_ROUNDTRIP
360
9BB
  0
DICTIONARY
  5
9C2
330
938
100
AcDbDictionary
280
     1
281
     1
  3
ACAD_XREC_ROUNDTRIP
360
9C3
  0
DICTIONARY
  5
9B4
330
931
100
AcDbDictionary
280
     1
281
     1
  3
ACAD_XREC_ROUNDTRIP
360
9B5
  0
DICTIONARY
  5
9B8
330
933
100
AcDbDictionary
280
     1
281
     1
  3
ACAD_XREC_ROUNDTRIP
360
9B9
  0
DICTIONARY
  5
9D2
330
940
100
AcDbDictionary
280
     1
281
     1
  3
ACAD_XREC_ROUNDTRIP
360
9D3
  0
DICTIONARY
  5
9C0
330
937
100
AcDbDictionary
280
     1
281
     1
  3
ACAD_XREC_ROUNDTRIP
360
9C1
  0
DICTIONARY
  5
9A4
330
929
100
AcDbDictionary
280
     1
281
     1
  3
ACAD_XREC_ROUNDTRIP
360
9A5
  0
DICTIONARY
  5
9A6
330
92A
100
AcDbDictionary
280
     1
281
     1
  3
ACAD_XREC_ROUNDTRIP
360
9A7
  0
DICTIONARY
  5
9A8
330
92B
100
AcDbDictionary
280
     1
281
     1
  3
ACAD_XREC_ROUNDTRIP
360
9A9
  0
DICTIONARY
  5
9AA
330
92C
100
AcDbDictionary
280
     1
281
     1
  3
ACAD_XREC_ROUNDTRIP
360
9AB
  0
DICTIONARY
  5
9B2
330
930
100
AcDbDictionary
280
     1
281
     1
  3
ACAD_XREC_ROUNDTRIP
360
9B3
  0
DICTIONARY
  5
9CE
330
93E
100
AcDbDictionary
280
     1
281
     1
  3
ACAD_XREC_ROUNDTRIP
360
9CF
  0
DICTIONARY
  5
9BE
330
936
100
AcDbDictionary
280
     1
281
     1
  3
ACAD_XREC_ROUNDTRIP
360
9BF
  0
DICTIONARY
  5
9D0
330
93F
100
AcDbDictionary
280
     1
281
     1
  3
ACAD_XREC_ROUNDTRIP
360
9D1
  0
DICTIONARY
  5
9B6
330
932
100
AcDbDictionary
280
     1
281
     1
  3
ACAD_XREC_ROUNDTRIP
360
9B7
  0
DICTIONARY
  5
9CC
330
93D
100
AcDbDictionary
280
     1
281
     1
  3
ACAD_XREC_ROUNDTRIP
360
9CD
  0
DICTIONARY
  5
9CA
330
93C
100
AcDbDictionary
280
     1
281
     1
  3
ACAD_XREC_ROUNDTRIP
360
9CB
  0
DICTIONARY
  5
9C4
330
939
100
AcDbDictionary
280
     1
281
     1
  3
ACAD_XREC_ROUNDTRIP
360
9C5
  0
DICTIONARY
  5
9C6
330
93A
100
AcDbDictionary
280
     1
281
     1
  3
ACAD_XREC_ROUNDTRIP
360
9C7
  0
DICTIONARY
  5
9BC
330
935
100
AcDbDictionary
280
     1
281
     1
  3
ACAD_XREC_ROUNDTRIP
360
9BD
  0
DICTIONARY
  5
9B0
330
92F
100
AcDbDictionary
280
     1
281
     1
  3
ACAD_XREC_ROUNDTRIP
360
9B1
  0
DICTIONARY
  5
9C8
330
93B
100
AcDbDictionary
280
     1
281
     1
  3
ACAD_XREC_ROUNDTRIP
360
9C9
  0
XRECORD
  5
9D9
102
{ACAD_REACTORS
330
9D8
102
}
330
9D8
100
AcDbXrecord
280
     1
102
DISPLAYNAME
  1
Imperial24
102
FLAGS
 90
        0
  0
XRECORD
  5
9DD
102
{ACAD_REACTORS
330
9DC
102
}
330
9DC
100
AcDbXrecord
280
     1
102
SHADEPLOT
 70
     0
102
SHADEPLOTRESLEVEL
 70
     2
102
SHADEPLOTCUSTOMDPI
 70
   300
  0
XRECORD
  5
9DB
102
{ACAD_REACTORS
330
9DA
102
}
330
9DA
100
AcDbXrecord
280
     1
102
SHADEPLOT
 70
     0
102
SHADEPLOTRESLEVEL
 70
     2
102
SHADEPLOTCUSTOMDPI
 70
   300
  0
XRECORD
  5
9A2
102
{ACAD_REACTORS
330
919
102
}
330
919
100
AcDbXrecord
280
     1
102
MATERIAL
148
0.0
149
0.0
149
0.0
 93
        0
 94
      127
282
     0
 72
     0
 77
     0
171
     0
175
     0
179
     0
273
     0
  0
XRECORD
  5
91B
102
{ACAD_REACTORS
330
919
102
}
330
919
100
AcDbXrecord
280
     1
270
     1
271
     1
  0
XRECORD
  5
91A
102
{ACAD_REACTORS
330
919
102
}
330
919
100
AcDbXrecord
280
     1
270
     1
271
     1
  0
XRECORD
  5
91E
102
{ACAD_REACTORS
330
919
102
}
330
919
100
AcDbXrecord
280
     1
270
     1
271
     1
  0
XRECORD
  5
91D
102
{ACAD_REACTORS
330
919
102
}
330
919
100
AcDbXrecord
280
     1
270
     1
271
     1
  0
XRECORD
  5
91F
102
{ACAD_REACTORS
330
919
102
}
330
919
100
AcDbXrecord
280
     1
270
     1
271
     1
  0
XRECORD
  5
91C
102
{ACAD_REACTORS
330
919
102
}
330
919
100
AcDbXrecord
280
     1
270
     1
271
     1
  0
XRECORD
  5
9A1
102
{ACAD_REACTORS
330
911
102
}
330
911
100
AcDbXrecord
280
     1
102
MATERIAL
148
0.0
149
0.0
149
0.0
 93
        0
 94
      127
282
     0
 72
     0
 77
     0
171
     0
175
     0
179
     0
273
     0
  0
XRECORD
  5
913
102
{ACAD_REACTORS
330
911
102
}
330
911
100
AcDbXrecord
280
     1
270
     1
271
     1
  0
XRECORD
  5
912
102
{ACAD_REACTORS
330
911
102
}
330
911
100
AcDbXrecord
280
     1
270
     1
271
     1
  0
XRECORD
  5
916
102
{ACAD_REACTORS
330
911
102
}
330
911
100
AcDbXrecord
280
     1
270
     1
271
     1
  0
XRECORD
  5
915
102
{ACAD_REACTORS
330
911
102
}
330
911
100
AcDbXrecord
280
     1
270
     1
271
     1
  0
XRECORD
  5
917
102
{ACAD_REACTORS
330
911
102
}
330
911
100
AcDbXrecord
280
     1
270
     1
271
     1
  0
XRECORD
  5
914
102
{ACAD_REACTORS
330
911
102
}
330
911
100
AcDbXrecord
280
     1
270
     1
271
     1
  0
XRECORD
  5
9A3
102
{ACAD_REACTORS
330
921
102
}
330
921
100
AcDbXrecord
280
     1
102
MATERIAL
148
0.0
149
0.0
149
0.0
 93
        0
 94
      127
282
     0
 72
     0
 77
     0
171
     0
175
     0
179
     0
273
     0
  0
XRECORD
  5
923
102
{ACAD_REACTORS
330
921
102
}
330
921
100
AcDbXrecord
280
     1
270
     1
271
     1
  0
XRECORD
  5
922
102
{ACAD_REACTORS
330
921
102
}
330
921
100
AcDbXrecord
280
     1
270
     1
271
     1
  0
XRECORD
  5
926
102
{ACAD_REACTORS
330
921
102
}
330
921
100
AcDbXrecord
280
     1
270
     1
271
     1
  0
XRECORD
  5
925
102
{ACAD_REACTORS
330
921
102
}
330
921
100
AcDbXrecord
280
     1
270
     1
271
     1
  0
XRECORD
  5
927
102
{ACAD_REACTORS
330
921
102
}
330
921
100
AcDbXrecord
280
     1
270
     1
271
     1
  0
XRECORD
  5
924
102
{ACAD_REACTORS
330
921
102
}
330
921
100
AcDbXrecord
280
     1
270
     1
271
     1
  0
XRECORD
  5
9D7
102
{ACAD_REACTORS
330
9D6
102
}
330
9D6
100
AcDbXrecord
280
     1
102
DISPLAYNAME
  1
Imperial24
102
FLAGS
 90
        0
  0
CELLSTYLEMAP
  5
99E
102
{ACAD_REACTORS
330
99D
102
}
330
99D
100
AcDbCellStyleMap
 90
        3
300
CELLSTYLE
  1
TABLEFORMAT_BEGIN
 90
        5
170
     1
 91
        0
 92
    32768
 62
   257
 93
        1
300
CONTENTFORMAT
  1
CONTENTFORMAT_BEGIN
 90
        0
 91
        0
 92
      512
 93
        0
300

 40
0.0
140
1.0
 94
        5
 62
     0
340
954
144
0.25
309
CONTENTFORMAT_END
171
     0
 94
        0
309
TABLEFORMAT_END
  1
CELLSTYLE_BEGIN
 90
        1
 91
        1
300
_TITLE
309
CELLSTYLE_END
300
CELLSTYLE
  1
TABLEFORMAT_BEGIN
 90
        5
170
     1
 91
        0
 92
        0
 62
   257
 93
        1
300
CONTENTFORMAT
  1
CONTENTFORMAT_BEGIN
 90
        0
 91
        0
 92
      512
 93
        0
300

 40
0.0
140
1.0
 94
        5
 62
     0
340
954
144
0.18
309
CONTENTFORMAT_END
171
     0
 94
        0
309
TABLEFORMAT_END
  1
CELLSTYLE_BEGIN
 90
        2
 91
        1
300
_HEADER
309
CELLSTYLE_END
300
CELLSTYLE
  1
TABLEFORMAT_BEGIN
 90
        5
170
     1
 91
        0
 92
        0
 62
   257
 93
        1
300
CONTENTFORMAT
  1
CONTENTFORMAT_BEGIN
 90
        0
 91
        0
 92
      512
 93
        0
300

 40
0.0
140
1.0
 94
        2
 62
     0
340
954
144
0.18
309
CONTENTFORMAT_END
171
     0
 94
        0
309
TABLEFORMAT_END
  1
CELLSTYLE_BEGIN
 90
        3
 91
        2
300
_DATA
309
CELLSTYLE_END
  0
XRECORD
  5
9D4
102
{ACAD_REACTORS
330
99D
102
}
330
99D
100
AcDbXrecord
280
     1
102
ACAD_ROUNDTRIP_PRE2007_TABLESTYLE
 90
      512
 91
        0
  1

 92
      512
 93
        0
  2

 94
      512
 95
        0
  3

  0
XRECORD
  5
9AF
102
{ACAD_REACTORS
330
9AE
102
}
330
9AE
100
AcDbXrecord
280
     1
102
RTVSPost2010Prop28
280
     1
102
RTVSPost2010PropOp28
 70
     1
102
RTVSPost2010Prop29
280
     1
102
RTVSPost2010PropOp29
 70
     1
102
RTVSPost2010Prop30
280
     0
102
RTVSPost2010PropOp30
 70
     1
102
RTVSPost2010Prop31
280
     0
102
RTVSPost2010PropOp31
 70
     1
102
RTVSPost2010Prop32
280
     0
102
RTVSPost2010PropOp32
 70
     1
102
RTVSPost2010Prop33
280
     0
102
RTVSPost2010PropOp33
 70
     1
102
RTVSPost2010Prop34
280
     0
102
RTVSPost2010PropOp34
 70
     1
102
RTVSPost2010Prop35
280
     0
102
RTVSPost2010PropOp35
 70
     1
102
RTVSPost2010Prop36
280
     0
102
RTVSPost2010PropOp36
 70
     1
102
RTVSPost2010Prop37
 90
       50
102
RTVSPost2010PropOp37
 70
     1
102
RTVSPost2010Prop38
140
0.0
102
RTVSPost2010PropOp38
 70
     1
102
RTVSPost2010Prop39
140
1.0
102
RTVSPost2010PropOp39
 70
     1
102
RTVSPost2010Prop40
 90
        0
102
RTVSPost2010PropOp40
 70
     1
102
RTVSPost2010Prop41ColorIndex
 90
       18
102
RTVSPost2010Prop41ColorRGB
 90
        0
102
RTVSPost2010PropOp41
 70
     1
102
RTVSPost2010Prop42
 90
       50
102
RTVSPost2010PropOp42
 70
     1
102
RTVSPost2010Prop43
 90
        3
102
RTVSPost2010PropOp43
 70
     1
102
RTVSPost2010Prop44ColorIndex
 90
        5
102
RTVSPost2010Prop44ColorRGB
 90
      255
102
RTVSPost2010PropOp44
 70
     1
102
RTVSPost2010Prop45
280
     0
102
RTVSPost2010PropOp45
 70
     1
102
RTVSPost2010Prop46
 90
       50
102
RTVSPost2010PropOp46
 70
     1
102
RTVSPost2010Prop47
 90
       50
102
RTVSPost2010PropOp47
 70
     1
102
RTVSPost2010Prop48
 90
       50
102
RTVSPost2010PropOp48
 70
     1
102
RTVSPost2010Prop49
280
     0
102
RTVSPost2010PropOp49
 70
     1
102
RTVSPost2010Prop50
 90
       50
102
RTVSPost2010PropOp50
 70
     1
102
RTVSPost2010Prop51ColorIndex
 90
      256
102
RTVSPost2010Prop51ColorRGB
 90
-16777216
102
RTVSPost2010PropOp51
 70
     0
102
RTVSPost2010Prop52
140
1.0
102
RTVSPost2010PropOp52
 70
     0
102
RTVSPost2010Prop53
 90
        2
102
RTVSPost2010PropOp53
 70
     1
102
RTVSPost2010Prop54
  1
strokes_ogs.tif
102
RTVSPost2010PropOp54
 70
     1
102
RTVSPost2010Prop55
280
     0
102
RTVSPost2010PropOp55
 70
     1
102
RTVSPost2010Prop56
140
1.0
102
RTVSPost2010PropOp56
 70
     1
102
RTVSPost2010Prop57
140
1.0
102
RTVSPost2010PropOp57
 70
     1
102
RTVSPropertyOp0
 70
     1
102
RTVSPropertyOp1
 70
     1
102
RTVSPropertyOp2
 70
     1
102
RTVSPropertyOp3
 70
     1
102
RTVSPropertyOp4
 70
     1
102
RTVSPropertyOp5
 70
     1
102
RTVSPropertyOp6
 70
     1
102
RTVSPropertyOp7
 70
     1
102
RTVSPropertyOp8
 70
     1
102
RTVSPropertyOp9
 70
     1
102
RTVSPropertyOp10
 70
     1
102
RTVSPropertyOp11
 70
     1
102
RTVSPropertyOp12
 70
     1
102
RTVSPropertyOp13
 70
     1
102
RTVSPropertyOp14
 70
     1
102
RTVSPropertyOp15
 70
     1
102
RTVSPropertyOp16
 70
     1
102
RTVSPropertyOp17
 70
     1
102
RTVSPropertyOp18
 70
     1
102
RTVSPropertyOp19
 70
     1
102
RTVSPropertyOp20
 70
     1
102
RTVSPropertyOp21
 70
     1
102
RTVSPropertyOp22
 70
     1
102
RTVSPropertyOp23
 70
     1
102
RTVSPropertyOp24
 70
     1
102
RTVSPropertyOp25
 70
     1
102
RTVSPropertyOp26
 70
     1
102
RTVSPropertyOp27
 70
     1
102
RTVSPropertyOp28
 70
     1
102
RTVSPropertyOp29
 70
     1
102
RTVSPropertyOp30
 70
     1
102
RTVSPropertyOp31
 70
     1
102
RTVSPropertyOp32
 70
     1
102
RTVSPropertyOp33
 70
     1
102
RTVSPropertyOp34
 70
     1
102
RTVSPropertyOp35
 70
     1
102
RTVSPropertyOp36
 70
     1
102
RTVSPropertyOp37
 70
     1
102
RTVSPropertyOp38
 70
     1
102
RTVSPropertyOp39
 70
     1
102
RTVSPropertyOp40
 70
     1
102
RTVSPropertyOp41
 70
     1
102
RTVSPropertyOp42
 70
     1
102
RTVSPropertyOp43
 70
     1
102
RTVSPropertyOp44
 70
     1
102
RTVSPropertyOp45
 70
     1
102
RTVSPropertyOp46
 70
     1
102
RTVSPropertyOp47
 70
     1
102
RTVSPropertyOp48
 70
     1
102
RTVSPropertyOp49
 70
     1
102
RTVSPropertyOp50
 70
     1
102
RTVSPropertyOp51
 70
     0
102
RTVSPropertyOp52
 70
     0
102
RTVSPropertyOp53
 70
     1
102
RTVSPropertyOp54
 70
     1
102
RTVSPropertyOp55
 70
     1
102
RTVSPropertyOp56
 70
     1
102
RTVSPropertyOp57
 70
     1
102
RTVSPropertyOp58
 70
     1
102
RTVSPropertyOp59
 70
     1
102
RTVSPropertyOp60
 70
     1
102
RTVSPropertyOp61
 70
     1
102
RTVSPropertyOp62
 70
     1
  0
XRECORD
  5
9AD
102
{ACAD_REACTORS
330
9AC
102
}
330
9AC
100
AcDbXrecord
280
     1
102
RTVSPost2010Prop28
280
     0
102
RTVSPost2010PropOp28
 70
     1
102
RTVSPost2010Prop29
280
     1
102
RTVSPost2010PropOp29
 70
     1
102
RTVSPost2010Prop30
280
     1
102
RTVSPost2010PropOp30
 70
     1
102
RTVSPost2010Prop31
280
     0
102
RTVSPost2010PropOp31
 70
     1
102
RTVSPost2010Prop32
280
     0
102
RTVSPost2010PropOp32
 70
     1
102
RTVSPost2010Prop33
280
     0
102
RTVSPost2010PropOp33
 70
     1
102
RTVSPost2010Prop34
280
     0
102
RTVSPost2010PropOp34
 70
     1
102
RTVSPost2010Prop35
280
     0
102
RTVSPost2010PropOp35
 70
     1
102
RTVSPost2010Prop36
280
     0
102
RTVSPost2010PropOp36
 70
     1
102
RTVSPost2010Prop37
 90
       50
102
RTVSPost2010PropOp37
 70
     1
102
RTVSPost2010Prop38
140
0.0
102
RTVSPost2010PropOp38
 70
     1
102
RTVSPost2010Prop39
140
1.0
102
RTVSPost2010PropOp39
 70
     1
102
RTVSPost2010Prop40
 90
        0
102
RTVSPost2010PropOp40
 70
     1
102
RTVSPost2010Prop41ColorIndex
 90
       18
102
RTVSPost2010Prop41ColorRGB
 90
        0
102
RTVSPost2010PropOp41
 70
     1
102
RTVSPost2010Prop42
 90
       50
102
RTVSPost2010PropOp42
 70
     1
102
RTVSPost2010Prop43
 90
        3
102
RTVSPost2010PropOp43
 70
     1
102
RTVSPost2010Prop44ColorIndex
 90
        5
102
RTVSPost2010Prop44ColorRGB
 90
      255
102
RTVSPost2010PropOp44
 70
     1
102
RTVSPost2010Prop45
280
     0
102
RTVSPost2010PropOp45
 70
     1
102
RTVSPost2010Prop46
 90
       50
102
RTVSPost2010PropOp46
 70
     1
102
RTVSPost2010Prop47
 90
       50
102
RTVSPost2010PropOp47
 70
     1
102
RTVSPost2010Prop48
 90
       50
102
RTVSPost2010PropOp48
 70
     1
102
RTVSPost2010Prop49
280
     0
102
RTVSPost2010PropOp49
 70
     1
102
RTVSPost2010Prop50
 90
       50
102
RTVSPost2010PropOp50
 70
     1
102
RTVSPost2010Prop51ColorIndex
 90
      256
102
RTVSPost2010Prop51ColorRGB
 90
-16777216
102
RTVSPost2010PropOp51
 70
     0
102
RTVSPost2010Prop52
140
1.0
102
RTVSPost2010PropOp52
 70
     0
102
RTVSPost2010Prop53
 90
        2
102
RTVSPost2010PropOp53
 70
     1
102
RTVSPost2010Prop54
  1
strokes_ogs.tif
102
RTVSPost2010PropOp54
 70
     1
102
RTVSPost2010Prop55
280
     0
102
RTVSPost2010PropOp55
 70
     1
102
RTVSPost2010Prop56
140
1.0
102
RTVSPost2010PropOp56
 70
     1
102
RTVSPost2010Prop57
140
1.0
102
RTVSPost2010PropOp57
 70
     1
102
RTVSPropertyOp0
 70
     1
102
RTVSPropertyOp1
 70
     1
102
RTVSPropertyOp2
 70
     1
102
RTVSPropertyOp3
 70
     1
102
RTVSPropertyOp4
 70
     1
102
RTVSPropertyOp5
 70
     1
102
RTVSPropertyOp6
 70
     1
102
RTVSPropertyOp7
 70
     1
102
RTVSPropertyOp8
 70
     1
102
RTVSPropertyOp9
 70
     1
102
RTVSPropertyOp10
 70
     1
102
RTVSPropertyOp11
 70
     1
102
RTVSPropertyOp12
 70
     1
102
RTVSPropertyOp13
 70
     1
102
RTVSPropertyOp14
 70
     1
102
RTVSPropertyOp15
 70
     1
102
RTVSPropertyOp16
 70
     1
102
RTVSPropertyOp17
 70
     1
102
RTVSPropertyOp18
 70
     1
102
RTVSPropertyOp19
 70
     1
102
RTVSPropertyOp20
 70
     1
102
RTVSPropertyOp21
 70
     1
102
RTVSPropertyOp22
 70
     1
102
RTVSPropertyOp23
 70
     1
102
RTVSPropertyOp24
 70
     1
102
RTVSPropertyOp25
 70
     1
102
RTVSPropertyOp26
 70
     1
102
RTVSPropertyOp27
 70
     1
102
RTVSPropertyOp28
 70
     1
102
RTVSPropertyOp29
 70
     1
102
RTVSPropertyOp30
 70
     1
102
RTVSPropertyOp31
 70
     1
102
RTVSPropertyOp32
 70
     1
102
RTVSPropertyOp33
 70
     1
102
RTVSPropertyOp34
 70
     1
102
RTVSPropertyOp35
 70
     1
102
RTVSPropertyOp36
 70
     1
102
RTVSPropertyOp37
 70
     1
102
RTVSPropertyOp38
 70
     1
102
RTVSPropertyOp39
 70
     1
102
RTVSPropertyOp40
 70
     1
102
RTVSPropertyOp41
 70
     1
102
RTVSPropertyOp42
 70
     1
102
RTVSPropertyOp43
 70
     1
102
RTVSPropertyOp44
 70
     1
102
RTVSPropertyOp45
 70
     1
102
RTVSPropertyOp46
 70
     1
102
RTVSPropertyOp47
 70
     1
102
RTVSPropertyOp48
 70
     1
102
RTVSPropertyOp49
 70
     1
102
RTVSPropertyOp50
 70
     1
102
RTVSPropertyOp51
 70
     0
102
RTVSPropertyOp52
 70
     0
102
RTVSPropertyOp53
 70
     1
102
RTVSPropertyOp54
 70
     1
102
RTVSPropertyOp55
 70
     1
102
RTVSPropertyOp56
 70
     1
102
RTVSPropertyOp57
 70
     1
102
RTVSPropertyOp58
 70
     1
102
RTVSPropertyOp59
 70
     1
102
RTVSPropertyOp60
 70
     1
102
RTVSPropertyOp61
 70
     1
102
RTVSPropertyOp62
 70
     1
  0
XRECORD
  5
9BB
102
{ACAD_REACTORS
330
9BA
102
}
330
9BA
100
AcDbXrecord
280
     1
102
RTVSPost2010Prop28
280
     0
102
RTVSPost2010PropOp28
 70
     1
102
RTVSPost2010Prop29
280
     1
102
RTVSPost2010PropOp29
 70
     1
102
RTVSPost2010Prop30
280
     1
102
RTVSPost2010PropOp30
 70
     1
102
RTVSPost2010Prop31
280
     0
102
RTVSPost2010PropOp31
 70
     1
102
RTVSPost2010Prop32
280
     0
102
RTVSPost2010PropOp32
 70
     1
102
RTVSPost2010Prop33
280
     0
102
RTVSPost2010PropOp33
 70
     1
102
RTVSPost2010Prop34
280
     0
102
RTVSPost2010PropOp34
 70
     1
102
RTVSPost2010Prop35
280
     0
102
RTVSPost2010PropOp35
 70
     1
102
RTVSPost2010Prop36
280
     0
102
RTVSPost2010PropOp36
 70
     1
102
RTVSPost2010Prop37
 90
       50
102
RTVSPost2010PropOp37
 70
     1
102
RTVSPost2010Prop38
140
0.0
102
RTVSPost2010PropOp38
 70
     1
102
RTVSPost2010Prop39
140
1.0
102
RTVSPost2010PropOp39
 70
     1
102
RTVSPost2010Prop40
 90
        0
102
RTVSPost2010PropOp40
 70
     1
102
RTVSPost2010Prop41ColorIndex
 90
       18
102
RTVSPost2010Prop41ColorRGB
 90
        0
102
RTVSPost2010PropOp41
 70
     1
102
RTVSPost2010Prop42
 90
       50
102
RTVSPost2010PropOp42
 70
     1
102
RTVSPost2010Prop43
 90
        3
102
RTVSPost2010PropOp43
 70
     1
102
RTVSPost2010Prop44ColorIndex
 90
        5
102
RTVSPost2010Prop44ColorRGB
 90
      255
102
RTVSPost2010PropOp44
 70
     1
102
RTVSPost2010Prop45
280
     0
102
RTVSPost2010PropOp45
 70
     1
102
RTVSPost2010Prop46
 90
       50
102
RTVSPost2010PropOp46
 70
     1
102
RTVSPost2010Prop47
 90
       50
102
RTVSPost2010PropOp47
 70
     1
102
RTVSPost2010Prop48
 90
       50
102
RTVSPost2010PropOp48
 70
     1
102
RTVSPost2010Prop49
280
     0
102
RTVSPost2010PropOp49
 70
     1
102
RTVSPost2010Prop50
 90
       50
102
RTVSPost2010PropOp50
 70
     1
102
RTVSPost2010Prop51ColorIndex
 90
      256
102
RTVSPost2010Prop51ColorRGB
 90
-16777216
102
RTVSPost2010PropOp51
 70
     0
102
RTVSPost2010Prop52
140
1.0
102
RTVSPost2010PropOp52
 70
     0
102
RTVSPost2010Prop53
 90
        2
102
RTVSPost2010PropOp53
 70
     1
102
RTVSPost2010Prop54
  1
strokes_ogs.tif
102
RTVSPost2010PropOp54
 70
     1
102
RTVSPost2010Prop55
280
     0
102
RTVSPost2010PropOp55
 70
     1
102
RTVSPost2010Prop56
140
1.0
102
RTVSPost2010PropOp56
 70
     1
102
RTVSPost2010Prop57
140
1.0
102
RTVSPost2010PropOp57
 70
     1
102
RTVSPropertyOp0
 70
     1
102
RTVSPropertyOp1
 70
     1
102
RTVSPropertyOp2
 70
     1
102
RTVSPropertyOp3
 70
     1
102
RTVSPropertyOp4
 70
     1
102
RTVSPropertyOp5
 70
     1
102
RTVSPropertyOp6
 70
     1
102
RTVSPropertyOp7
 70
     1
102
RTVSPropertyOp8
 70
     1
102
RTVSPropertyOp9
 70
     1
102
RTVSPropertyOp10
 70
     1
102
RTVSPropertyOp11
 70
     1
102
RTVSPropertyOp12
 70
     1
102
RTVSPropertyOp13
 70
     1
102
RTVSPropertyOp14
 70
     1
102
RTVSPropertyOp15
 70
     1
102
RTVSPropertyOp16
 70
     1
102
RTVSPropertyOp17
 70
     1
102
RTVSPropertyOp18
 70
     1
102
RTVSPropertyOp19
 70
     1
102
RTVSPropertyOp20
 70
     1
102
RTVSPropertyOp21
 70
     1
102
RTVSPropertyOp22
 70
     1
102
RTVSPropertyOp23
 70
     1
102
RTVSPropertyOp24
 70
     1
102
RTVSPropertyOp25
 70
     1
102
RTVSPropertyOp26
 70
     1
102
RTVSPropertyOp27
 70
     1
102
RTVSPropertyOp28
 70
     1
102
RTVSPropertyOp29
 70
     1
102
RTVSPropertyOp30
 70
     1
102
RTVSPropertyOp31
 70
     1
102
RTVSPropertyOp32
 70
     1
102
RTVSPropertyOp33
 70
     1
102
RTVSPropertyOp34
 70
     1
102
RTVSPropertyOp35
 70
     1
102
RTVSPropertyOp36
 70
     1
102
RTVSPropertyOp37
 70
     1
102
RTVSPropertyOp38
 70
     1
102
RTVSPropertyOp39
 70
     1
102
RTVSPropertyOp40
 70
     1
102
RTVSPropertyOp41
 70
     1
102
RTVSPropertyOp42
 70
     1
102
RTVSPropertyOp43
 70
     1
102
RTVSPropertyOp44
 70
     1
102
RTVSPropertyOp45
 70
     1
102
RTVSPropertyOp46
 70
     1
102
RTVSPropertyOp47
 70
     1
102
RTVSPropertyOp48
 70
     1
102
RTVSPropertyOp49
 70
     1
102
RTVSPropertyOp50
 70
     1
102
RTVSPropertyOp51
 70
     0
102
RTVSPropertyOp52
 70
     0
102
RTVSPropertyOp53
 70
     1
102
RTVSPropertyOp54
 70
     1
102
RTVSPropertyOp55
 70
     1
102
RTVSPropertyOp56
 70
     1
102
RTVSPropertyOp57
 70
     1
102
RTVSPropertyOp58
 70
     1
102
RTVSPropertyOp59
 70
     1
102
RTVSPropertyOp60
 70
     1
102
RTVSPropertyOp61
 70
     1
102
RTVSPropertyOp62
 70
     1
  0
XRECORD
  5
9C3
102
{ACAD_REACTORS
330
9C2
102
}
330
9C2
100
AcDbXrecord
280
     1
102
RTVSPost2010Prop28
280
     0
102
RTVSPost2010PropOp28
 70
     1
102
RTVSPost2010Prop29
280
     1
102
RTVSPost2010PropOp29
 70
     1
102
RTVSPost2010Prop30
280
     1
102
RTVSPost2010PropOp30
 70
     1
102
RTVSPost2010Prop31
280
     0
102
RTVSPost2010PropOp31
 70
     1
102
RTVSPost2010Prop32
280
     0
102
RTVSPost2010PropOp32
 70
     1
102
RTVSPost2010Prop33
280
     0
102
RTVSPost2010PropOp33
 70
     1
102
RTVSPost2010Prop34
280
     0
102
RTVSPost2010PropOp34
 70
     1
102
RTVSPost2010Prop35
280
     0
102
RTVSPost2010PropOp35
 70
     1
102
RTVSPost2010Prop36
280
     0
102
RTVSPost2010PropOp36
 70
     1
102
RTVSPost2010Prop37
 90
       50
102
RTVSPost2010PropOp37
 70
     1
102
RTVSPost2010Prop38
140
0.0
102
RTVSPost2010PropOp38
 70
     1
102
RTVSPost2010Prop39
140
1.0
102
RTVSPost2010PropOp39
 70
     1
102
RTVSPost2010Prop40
 90
        0
102
RTVSPost2010PropOp40
 70
     1
102
RTVSPost2010Prop41ColorIndex
 90
       18
102
RTVSPost2010Prop41ColorRGB
 90
        0
102
RTVSPost2010PropOp41
 70
     1
102
RTVSPost2010Prop42
 90
       50
102
RTVSPost2010PropOp42
 70
     1
102
RTVSPost2010Prop43
 90
        3
102
RTVSPost2010PropOp43
 70
     1
102
RTVSPost2010Prop44ColorIndex
 90
        5
102
RTVSPost2010Prop44ColorRGB
 90
      255
102
RTVSPost2010PropOp44
 70
     1
102
RTVSPost2010Prop45
280
     0
102
RTVSPost2010PropOp45
 70
     1
102
RTVSPost2010Prop46
 90
       50
102
RTVSPost2010PropOp46
 70
     1
102
RTVSPost2010Prop47
 90
       50
102
RTVSPost2010PropOp47
 70
     1
102
RTVSPost2010Prop48
 90
       50
102
RTVSPost2010PropOp48
 70
     1
102
RTVSPost2010Prop49
280
     0
102
RTVSPost2010PropOp49
 70
     1
102
RTVSPost2010Prop50
 90
       50
102
RTVSPost2010PropOp50
 70
     1
102
RTVSPost2010Prop51ColorIndex
 90
      256
102
RTVSPost2010Prop51ColorRGB
 90
-16777216
102
RTVSPost2010PropOp51
 70
     0
102
RTVSPost2010Prop52
140
1.0
102
RTVSPost2010PropOp52
 70
     0
102
RTVSPost2010Prop53
 90
        2
102
RTVSPost2010PropOp53
 70
     1
102
RTVSPost2010Prop54
  1
strokes_ogs.tif
102
RTVSPost2010PropOp54
 70
     1
102
RTVSPost2010Prop55
280
     0
102
RTVSPost2010PropOp55
 70
     1
102
RTVSPost2010Prop56
140
1.0
102
RTVSPost2010PropOp56
 70
     1
102
RTVSPost2010Prop57
140
1.0
102
RTVSPost2010PropOp57
 70
     1
102
RTVSPropertyOp0
 70
     1
102
RTVSPropertyOp1
 70
     1
102
RTVSPropertyOp2
 70
     1
102
RTVSPropertyOp3
 70
     1
102
RTVSPropertyOp4
 70
     1
102
RTVSPropertyOp5
 70
     1
102
RTVSPropertyOp6
 70
     1
102
RTVSPropertyOp7
 70
     1
102
RTVSPropertyOp8
 70
     1
102
RTVSPropertyOp9
 70
     1
102
RTVSPropertyOp10
 70
     1
102
RTVSPropertyOp11
 70
     1
102
RTVSPropertyOp12
 70
     1
102
RTVSPropertyOp13
 70
     1
102
RTVSPropertyOp14
 70
     1
102
RTVSPropertyOp15
 70
     1
102
RTVSPropertyOp16
 70
     1
102
RTVSPropertyOp17
 70
     1
102
RTVSPropertyOp18
 70
     1
102
RTVSPropertyOp19
 70
     1
102
RTVSPropertyOp20
 70
     1
102
RTVSPropertyOp21
 70
     1
102
RTVSPropertyOp22
 70
     1
102
RTVSPropertyOp23
 70
     1
102
RTVSPropertyOp24
 70
     1
102
RTVSPropertyOp25
 70
     1
102
RTVSPropertyOp26
 70
     1
102
RTVSPropertyOp27
 70
     1
102
RTVSPropertyOp28
 70
     1
102
RTVSPropertyOp29
 70
     1
102
RTVSPropertyOp30
 70
     1
102
RTVSPropertyOp31
 70
     1
102
RTVSPropertyOp32
 70
     1
102
RTVSPropertyOp33
 70
     1
102
RTVSPropertyOp34
 70
     1
102
RTVSPropertyOp35
 70
     1
102
RTVSPropertyOp36
 70
     1
102
RTVSPropertyOp37
 70
     1
102
RTVSPropertyOp38
 70
     1
102
RTVSPropertyOp39
 70
     1
102
RTVSPropertyOp40
 70
     1
102
RTVSPropertyOp41
 70
     1
102
RTVSPropertyOp42
 70
     1
102
RTVSPropertyOp43
 70
     1
102
RTVSPropertyOp44
 70
     1
102
RTVSPropertyOp45
 70
     1
102
RTVSPropertyOp46
 70
     1
102
RTVSPropertyOp47
 70
     1
102
RTVSPropertyOp48
 70
     1
102
RTVSPropertyOp49
 70
     1
102
RTVSPropertyOp50
 70
     1
102
RTVSPropertyOp51
 70
     0
102
RTVSPropertyOp52
 70
     0
102
RTVSPropertyOp53
 70
     1
102
RTVSPropertyOp54
 70
     1
102
RTVSPropertyOp55
 70
     1
102
RTVSPropertyOp56
 70
     1
102
RTVSPropertyOp57
 70
     1
102
RTVSPropertyOp58
 70
     1
102
RTVSPropertyOp59
 70
     1
102
RTVSPropertyOp60
 70
     1
102
RTVSPropertyOp61
 70
     1
102
RTVSPropertyOp62
 70
     1
  0
XRECORD
  5
9B5
102
{ACAD_REACTORS
330
9B4
102
}
330
9B4
100
AcDbXrecord
280
     1
102
RTVSPost2010Prop28
280
     0
102
RTVSPost2010PropOp28
 70
     1
102
RTVSPost2010Prop29
280
     1
102
RTVSPost2010PropOp29
 70
     1
102
RTVSPost2010Prop30
280
     1
102
RTVSPost2010PropOp30
 70
     1
102
RTVSPost2010Prop31
280
     0
102
RTVSPost2010PropOp31
 70
     1
102
RTVSPost2010Prop32
280
     0
102
RTVSPost2010PropOp32
 70
     1
102
RTVSPost2010Prop33
280
     0
102
RTVSPost2010PropOp33
 70
     1
102
RTVSPost2010Prop34
280
     0
102
RTVSPost2010PropOp34
 70
     1
102
RTVSPost2010Prop35
280
     0
102
RTVSPost2010PropOp35
 70
     1
102
RTVSPost2010Prop36
280
     0
102
RTVSPost2010PropOp36
 70
     1
102
RTVSPost2010Prop37
 90
       50
102
RTVSPost2010PropOp37
 70
     1
102
RTVSPost2010Prop38
140
0.0
102
RTVSPost2010PropOp38
 70
     1
102
RTVSPost2010Prop39
140
1.0
102
RTVSPost2010PropOp39
 70
     1
102
RTVSPost2010Prop40
 90
        0
102
RTVSPost2010PropOp40
 70
     1
102
RTVSPost2010Prop41ColorIndex
 90
       18
102
RTVSPost2010Prop41ColorRGB
 90
        0
102
RTVSPost2010PropOp41
 70
     1
102
RTVSPost2010Prop42
 90
       50
102
RTVSPost2010PropOp42
 70
     1
102
RTVSPost2010Prop43
 90
        3
102
RTVSPost2010PropOp43
 70
     1
102
RTVSPost2010Prop44ColorIndex
 90
        5
102
RTVSPost2010Prop44ColorRGB
 90
      255
102
RTVSPost2010PropOp44
 70
     1
102
RTVSPost2010Prop45
280
     0
102
RTVSPost2010PropOp45
 70
     1
102
RTVSPost2010Prop46
 90
       50
102
RTVSPost2010PropOp46
 70
     1
102
RTVSPost2010Prop47
 90
       50
102
RTVSPost2010PropOp47
 70
     1
102
RTVSPost2010Prop48
 90
       50
102
RTVSPost2010PropOp48
 70
     1
102
RTVSPost2010Prop49
280
     0
102
RTVSPost2010PropOp49
 70
     1
102
RTVSPost2010Prop50
 90
       50
102
RTVSPost2010PropOp50
 70
     1
102
RTVSPost2010Prop51ColorIndex
 90
      256
102
RTVSPost2010Prop51ColorRGB
 90
-16777216
102
RTVSPost2010PropOp51
 70
     0
102
RTVSPost2010Prop52
140
1.0
102
RTVSPost2010PropOp52
 70
     0
102
RTVSPost2010Prop53
 90
        2
102
RTVSPost2010PropOp53
 70
     1
102
RTVSPost2010Prop54
  1
strokes_ogs.tif
102
RTVSPost2010PropOp54
 70
     1
102
RTVSPost2010Prop55
280
     0
102
RTVSPost2010PropOp55
 70
     1
102
RTVSPost2010Prop56
140
1.0
102
RTVSPost2010PropOp56
 70
     1
102
RTVSPost2010Prop57
140
1.0
102
RTVSPost2010PropOp57
 70
     1
102
RTVSPropertyOp0
 70
     1
102
RTVSPropertyOp1
 70
     1
102
RTVSPropertyOp2
 70
     1
102
RTVSPropertyOp3
 70
     1
102
RTVSPropertyOp4
 70
     1
102
RTVSPropertyOp5
 70
     1
102
RTVSPropertyOp6
 70
     1
102
RTVSPropertyOp7
 70
     1
102
RTVSPropertyOp8
 70
     1
102
RTVSPropertyOp9
 70
     1
102
RTVSPropertyOp10
 70
     1
102
RTVSPropertyOp11
 70
     1
102
RTVSPropertyOp12
 70
     1
102
RTVSPropertyOp13
 70
     1
102
RTVSPropertyOp14
 70
     1
102
RTVSPropertyOp15
 70
     1
102
RTVSPropertyOp16
 70
     1
102
RTVSPropertyOp17
 70
     1
102
RTVSPropertyOp18
 70
     1
102
RTVSPropertyOp19
 70
     1
102
RTVSPropertyOp20
 70
     1
102
RTVSPropertyOp21
 70
     1
102
RTVSPropertyOp22
 70
     1
102
RTVSPropertyOp23
 70
     1
102
RTVSPropertyOp24
 70
     1
102
RTVSPropertyOp25
 70
     1
102
RTVSPropertyOp26
 70
     1
102
RTVSPropertyOp27
 70
     1
102
RTVSPropertyOp28
 70
     1
102
RTVSPropertyOp29
 70
     1
102
RTVSPropertyOp30
 70
     1
102
RTVSPropertyOp31
 70
     1
102
RTVSPropertyOp32
 70
     1
102
RTVSPropertyOp33
 70
     1
102
RTVSPropertyOp34
 70
     1
102
RTVSPropertyOp35
 70
     1
102
RTVSPropertyOp36
 70
     1
102
RTVSPropertyOp37
 70
     1
102
RTVSPropertyOp38
 70
     1
102
RTVSPropertyOp39
 70
     1
102
RTVSPropertyOp40
 70
     1
102
RTVSPropertyOp41
 70
     1
102
RTVSPropertyOp42
 70
     1
102
RTVSPropertyOp43
 70
     1
102
RTVSPropertyOp44
 70
     1
102
RTVSPropertyOp45
 70
     1
102
RTVSPropertyOp46
 70
     1
102
RTVSPropertyOp47
 70
     1
102
RTVSPropertyOp48
 70
     1
102
RTVSPropertyOp49
 70
     1
102
RTVSPropertyOp50
 70
     1
102
RTVSPropertyOp51
 70
     0
102
RTVSPropertyOp52
 70
     0
102
RTVSPropertyOp53
 70
     1
102
RTVSPropertyOp54
 70
     1
102
RTVSPropertyOp55
 70
     1
102
RTVSPropertyOp56
 70
     1
102
RTVSPropertyOp57
 70
     1
102
RTVSPropertyOp58
 70
     1
102
RTVSPropertyOp59
 70
     1
102
RTVSPropertyOp60
 70
     1
102
RTVSPropertyOp61
 70
     1
102
RTVSPropertyOp62
 70
     1
  0
XRECORD
  5
9B9
102
{ACAD_REACTORS
330
9B8
102
}
330
9B8
100
AcDbXrecord
280
     1
102
RTVSPost2010Prop28
280
     0
102
RTVSPost2010PropOp28
 70
     1
102
RTVSPost2010Prop29
280
     1
102
RTVSPost2010PropOp29
 70
     1
102
RTVSPost2010Prop30
280
     1
102
RTVSPost2010PropOp30
 70
     1
102
RTVSPost2010Prop31
280
     0
102
RTVSPost2010PropOp31
 70
     1
102
RTVSPost2010Prop32
280
     0
102
RTVSPost2010PropOp32
 70
     1
102
RTVSPost2010Prop33
280
     0
102
RTVSPost2010PropOp33
 70
     1
102
RTVSPost2010Prop34
280
     0
102
RTVSPost2010PropOp34
 70
     1
102
RTVSPost2010Prop35
280
     0
102
RTVSPost2010PropOp35
 70
     1
102
RTVSPost2010Prop36
280
     0
102
RTVSPost2010PropOp36
 70
     1
102
RTVSPost2010Prop37
 90
       50
102
RTVSPost2010PropOp37
 70
     1
102
RTVSPost2010Prop38
140
0.0
102
RTVSPost2010PropOp38
 70
     1
102
RTVSPost2010Prop39
140
1.0
102
RTVSPost2010PropOp39
 70
     1
102
RTVSPost2010Prop40
 90
        0
102
RTVSPost2010PropOp40
 70
     1
102
RTVSPost2010Prop41ColorIndex
 90
       18
102
RTVSPost2010Prop41ColorRGB
 90
        0
102
RTVSPost2010PropOp41
 70
     1
102
RTVSPost2010Prop42
 90
       50
102
RTVSPost2010PropOp42
 70
     1
102
RTVSPost2010Prop43
 90
        3
102
RTVSPost2010PropOp43
 70
     1
102
RTVSPost2010Prop44ColorIndex
 90
        5
102
RTVSPost2010Prop44ColorRGB
 90
      255
102
RTVSPost2010PropOp44
 70
     1
102
RTVSPost2010Prop45
280
     0
102
RTVSPost2010PropOp45
 70
     1
102
RTVSPost2010Prop46
 90
       50
102
RTVSPost2010PropOp46
 70
     1
102
RTVSPost2010Prop47
 90
       50
102
RTVSPost2010PropOp47
 70
     1
102
RTVSPost2010Prop48
 90
       50
102
RTVSPost2010PropOp48
 70
     1
102
RTVSPost2010Prop49
280
     0
102
RTVSPost2010PropOp49
 70
     1
102
RTVSPost2010Prop50
 90
       50
102
RTVSPost2010PropOp50
 70
     1
102
RTVSPost2010Prop51ColorIndex
 90
      256
102
RTVSPost2010Prop51ColorRGB
 90
-16777216
102
RTVSPost2010PropOp51
 70
     0
102
RTVSPost2010Prop52
140
1.0
102
RTVSPost2010PropOp52
 70
     0
102
RTVSPost2010Prop53
 90
        2
102
RTVSPost2010PropOp53
 70
     1
102
RTVSPost2010Prop54
  1
strokes_ogs.tif
102
RTVSPost2010PropOp54
 70
     1
102
RTVSPost2010Prop55
280
     0
102
RTVSPost2010PropOp55
 70
     1
102
RTVSPost2010Prop56
140
1.0
102
RTVSPost2010PropOp56
 70
     1
102
RTVSPost2010Prop57
140
1.0
102
RTVSPost2010PropOp57
 70
     1
102
RTVSPropertyOp0
 70
     1
102
RTVSPropertyOp1
 70
     1
102
RTVSPropertyOp2
 70
     1
102
RTVSPropertyOp3
 70
     1
102
RTVSPropertyOp4
 70
     1
102
RTVSPropertyOp5
 70
     1
102
RTVSPropertyOp6
 70
     1
102
RTVSPropertyOp7
 70
     1
102
RTVSPropertyOp8
 70
     1
102
RTVSPropertyOp9
 70
     1
102
RTVSPropertyOp10
 70
     1
102
RTVSPropertyOp11
 70
     1
102
RTVSPropertyOp12
 70
     1
102
RTVSPropertyOp13
 70
     1
102
RTVSPropertyOp14
 70
     1
102
RTVSPropertyOp15
 70
     1
102
RTVSPropertyOp16
 70
     1
102
RTVSPropertyOp17
 70
     1
102
RTVSPropertyOp18
 70
     1
102
RTVSPropertyOp19
 70
     1
102
RTVSPropertyOp20
 70
     1
102
RTVSPropertyOp21
 70
     1
102
RTVSPropertyOp22
 70
     1
102
RTVSPropertyOp23
 70
     1
102
RTVSPropertyOp24
 70
     1
102
RTVSPropertyOp25
 70
     1
102
RTVSPropertyOp26
 70
     1
102
RTVSPropertyOp27
 70
     1
102
RTVSPropertyOp28
 70
     1
102
RTVSPropertyOp29
 70
     1
102
RTVSPropertyOp30
 70
     1
102
RTVSPropertyOp31
 70
     1
102
RTVSPropertyOp32
 70
     1
102
RTVSPropertyOp33
 70
     1
102
RTVSPropertyOp34
 70
     1
102
RTVSPropertyOp35
 70
     1
102
RTVSPropertyOp36
 70
     1
102
RTVSPropertyOp37
 70
     1
102
RTVSPropertyOp38
 70
     1
102
RTVSPropertyOp39
 70
     1
102
RTVSPropertyOp40
 70
     1
102
RTVSPropertyOp41
 70
     1
102
RTVSPropertyOp42
 70
     1
102
RTVSPropertyOp43
 70
     1
102
RTVSPropertyOp44
 70
     1
102
RTVSPropertyOp45
 70
     1
102
RTVSPropertyOp46
 70
     1
102
RTVSPropertyOp47
 70
     1
102
RTVSPropertyOp48
 70
     1
102
RTVSPropertyOp49
 70
     1
102
RTVSPropertyOp50
 70
     1
102
RTVSPropertyOp51
 70
     0
102
RTVSPropertyOp52
 70
     0
102
RTVSPropertyOp53
 70
     1
102
RTVSPropertyOp54
 70
     1
102
RTVSPropertyOp55
 70
     1
102
RTVSPropertyOp56
 70
     1
102
RTVSPropertyOp57
 70
     1
102
RTVSPropertyOp58
 70
     1
102
RTVSPropertyOp59
 70
     1
102
RTVSPropertyOp60
 70
     1
102
RTVSPropertyOp61
 70
     1
102
RTVSPropertyOp62
 70
     1
  0
XRECORD
  5
9D3
102
{ACAD_REACTORS
330
9D2
102
}
330
9D2
100
AcDbXrecord
280
     1
102
RTVSPost2010Prop28
280
     0
102
RTVSPost2010PropOp28
 70
     1
102
RTVSPost2010Prop29
280
     1
102
RTVSPost2010PropOp29
 70
     1
102
RTVSPost2010Prop30
280
     1
102
RTVSPost2010PropOp30
 70
     1
102
RTVSPost2010Prop31
280
     0
102
RTVSPost2010PropOp31
 70
     1
102
RTVSPost2010Prop32
280
     0
102
RTVSPost2010PropOp32
 70
     1
102
RTVSPost2010Prop33
280
     0
102
RTVSPost2010PropOp33
 70
     1
102
RTVSPost2010Prop34
280
     0
102
RTVSPost2010PropOp34
 70
     1
102
RTVSPost2010Prop35
280
     0
102
RTVSPost2010PropOp35
 70
     1
102
RTVSPost2010Prop36
280
     0
102
RTVSPost2010PropOp36
 70
     1
102
RTVSPost2010Prop37
 90
       50
102
RTVSPost2010PropOp37
 70
     0
102
RTVSPost2010Prop38
140
0.0
102
RTVSPost2010PropOp38
 70
     0
102
RTVSPost2010Prop39
140
1.0
102
RTVSPost2010PropOp39
 70
     0
102
RTVSPost2010Prop40
 90
        0
102
RTVSPost2010PropOp40
 70
     0
102
RTVSPost2010Prop41ColorIndex
 90
       18
102
RTVSPost2010Prop41ColorRGB
 90
        0
102
RTVSPost2010PropOp41
 70
     0
102
RTVSPost2010Prop42
 90
       50
102
RTVSPost2010PropOp42
 70
     0
102
RTVSPost2010Prop43
 90
        3
102
RTVSPost2010PropOp43
 70
     0
102
RTVSPost2010Prop44ColorIndex
 90
        5
102
RTVSPost2010Prop44ColorRGB
 90
      255
102
RTVSPost2010PropOp44
 70
     0
102
RTVSPost2010Prop45
280
     0
102
RTVSPost2010PropOp45
 70
     1
102
RTVSPost2010Prop46
 90
       50
102
RTVSPost2010PropOp46
 70
     0
102
RTVSPost2010Prop47
 90
       50
102
RTVSPost2010PropOp47
 70
     0
102
RTVSPost2010Prop48
 90
       50
102
RTVSPost2010PropOp48
 70
     0
102
RTVSPost2010Prop49
280
     0
102
RTVSPost2010PropOp49
 70
     1
102
RTVSPost2010Prop50
 90
       50
102
RTVSPost2010PropOp50
 70
     0
102
RTVSPost2010Prop51ColorIndex
 90
      256
102
RTVSPost2010Prop51ColorRGB
 90
-16777216
102
RTVSPost2010PropOp51
 70
     0
102
RTVSPost2010Prop52
140
1.0
102
RTVSPost2010PropOp52
 70
     0
102
RTVSPost2010Prop53
 90
        2
102
RTVSPost2010PropOp53
 70
     0
102
RTVSPost2010Prop54
  1
strokes_ogs.tif
102
RTVSPost2010PropOp54
 70
     0
102
RTVSPost2010Prop55
280
     0
102
RTVSPost2010PropOp55
 70
     1
102
RTVSPost2010Prop56
140
1.0
102
RTVSPost2010PropOp56
 70
     0
102
RTVSPost2010Prop57
140
1.0
102
RTVSPost2010PropOp57
 70
     0
102
RTVSPropertyOp0
 70
     0
102
RTVSPropertyOp1
 70
     0
102
RTVSPropertyOp2
 70
     0
102
RTVSPropertyOp3
 70
     0
102
RTVSPropertyOp4
 70
     0
102
RTVSPropertyOp5
 70
     0
102
RTVSPropertyOp6
 70
     0
102
RTVSPropertyOp7
 70
     0
102
RTVSPropertyOp8
 70
     0
102
RTVSPropertyOp9
 70
     0
102
RTVSPropertyOp10
 70
     0
102
RTVSPropertyOp11
 70
     0
102
RTVSPropertyOp12
 70
     0
102
RTVSPropertyOp13
 70
     0
102
RTVSPropertyOp14
 70
     2
102
RTVSPropertyOp15
 70
     0
102
RTVSPropertyOp16
 70
     0
102
RTVSPropertyOp17
 70
     0
102
RTVSPropertyOp18
 70
     0
102
RTVSPropertyOp19
 70
     0
102
RTVSPropertyOp20
 70
     0
102
RTVSPropertyOp21
 70
     0
102
RTVSPropertyOp22
 70
     0
102
RTVSPropertyOp23
 70
     0
102
RTVSPropertyOp24
 70
     0
102
RTVSPropertyOp25
 70
     0
102
RTVSPropertyOp26
 70
     0
102
RTVSPropertyOp27
 70
     0
102
RTVSPropertyOp28
 70
     1
102
RTVSPropertyOp29
 70
     1
102
RTVSPropertyOp30
 70
     1
102
RTVSPropertyOp31
 70
     1
102
RTVSPropertyOp32
 70
     1
102
RTVSPropertyOp33
 70
     1
102
RTVSPropertyOp34
 70
     1
102
RTVSPropertyOp35
 70
     1
102
RTVSPropertyOp36
 70
     1
102
RTVSPropertyOp37
 70
     0
102
RTVSPropertyOp38
 70
     0
102
RTVSPropertyOp39
 70
     0
102
RTVSPropertyOp40
 70
     0
102
RTVSPropertyOp41
 70
     0
102
RTVSPropertyOp42
 70
     0
102
RTVSPropertyOp43
 70
     0
102
RTVSPropertyOp44
 70
     0
102
RTVSPropertyOp45
 70
     1
102
RTVSPropertyOp46
 70
     0
102
RTVSPropertyOp47
 70
     0
102
RTVSPropertyOp48
 70
     0
102
RTVSPropertyOp49
 70
     1
102
RTVSPropertyOp50
 70
     0
102
RTVSPropertyOp51
 70
     0
102
RTVSPropertyOp52
 70
     0
102
RTVSPropertyOp53
 70
     0
102
RTVSPropertyOp54
 70
     0
102
RTVSPropertyOp55
 70
     1
102
RTVSPropertyOp56
 70
     0
102
RTVSPropertyOp57
 70
     0
102
RTVSPropertyOp58
 70
     0
102
RTVSPropertyOp59
 70
     0
102
RTVSPropertyOp60
 70
     0
102
RTVSPropertyOp61
 70
     0
102
RTVSPropertyOp62
 70
     0
  0
XRECORD
  5
9C1
102
{ACAD_REACTORS
330
9C0
102
}
330
9C0
100
AcDbXrecord
280
     1
102
RTVSPost2010Prop28
280
     0
102
RTVSPost2010PropOp28
 70
     1
102
RTVSPost2010Prop29
280
     1
102
RTVSPost2010PropOp29
 70
     1
102
RTVSPost2010Prop30
280
     1
102
RTVSPost2010PropOp30
 70
     1
102
RTVSPost2010Prop31
280
     0
102
RTVSPost2010PropOp31
 70
     1
102
RTVSPost2010Prop32
280
     0
102
RTVSPost2010PropOp32
 70
     1
102
RTVSPost2010Prop33
280
     0
102
RTVSPost2010PropOp33
 70
     1
102
RTVSPost2010Prop34
280
     0
102
RTVSPost2010PropOp34
 70
     1
102
RTVSPost2010Prop35
280
     0
102
RTVSPost2010PropOp35
 70
     1
102
RTVSPost2010Prop36
280
     0
102
RTVSPost2010PropOp36
 70
     1
102
RTVSPost2010Prop37
 90
       50
102
RTVSPost2010PropOp37
 70
     1
102
RTVSPost2010Prop38
140
0.0
102
RTVSPost2010PropOp38
 70
     1
102
RTVSPost2010Prop39
140
1.0
102
RTVSPost2010PropOp39
 70
     1
102
RTVSPost2010Prop40
 90
        0
102
RTVSPost2010PropOp40
 70
     1
102
RTVSPost2010Prop41ColorIndex
 90
       18
102
RTVSPost2010Prop41ColorRGB
 90
        0
102
RTVSPost2010PropOp41
 70
     1
102
RTVSPost2010Prop42
 90
       50
102
RTVSPost2010PropOp42
 70
     1
102
RTVSPost2010Prop43
 90
        3
102
RTVSPost2010PropOp43
 70
     1
102
RTVSPost2010Prop44ColorIndex
 90
        5
102
RTVSPost2010Prop44ColorRGB
 90
      255
102
RTVSPost2010PropOp44
 70
     1
102
RTVSPost2010Prop45
280
     0
102
RTVSPost2010PropOp45
 70
     1
102
RTVSPost2010Prop46
 90
       50
102
RTVSPost2010PropOp46
 70
     1
102
RTVSPost2010Prop47
 90
       50
102
RTVSPost2010PropOp47
 70
     1
102
RTVSPost2010Prop48
 90
       50
102
RTVSPost2010PropOp48
 70
     1
102
RTVSPost2010Prop49
280
     0
102
RTVSPost2010PropOp49
 70
     1
102
RTVSPost2010Prop50
 90
       50
102
RTVSPost2010PropOp50
 70
     1
102
RTVSPost2010Prop51ColorIndex
 90
      256
102
RTVSPost2010Prop51ColorRGB
 90
-16777216
102
RTVSPost2010PropOp51
 70
     0
102
RTVSPost2010Prop52
140
1.0
102
RTVSPost2010PropOp52
 70
     0
102
RTVSPost2010Prop53
 90
        2
102
RTVSPost2010PropOp53
 70
     1
102
RTVSPost2010Prop54
  1
strokes_ogs.tif
102
RTVSPost2010PropOp54
 70
     1
102
RTVSPost2010Prop55
280
     0
102
RTVSPost2010PropOp55
 70
     1
102
RTVSPost2010Prop56
140
1.0
102
RTVSPost2010PropOp56
 70
     1
102
RTVSPost2010Prop57
140
1.0
102
RTVSPost2010PropOp57
 70
     1
102
RTVSPropertyOp0
 70
     1
102
RTVSPropertyOp1
 70
     1
102
RTVSPropertyOp2
 70
     1
102
RTVSPropertyOp3
 70
     1
102
RTVSPropertyOp4
 70
     1
102
RTVSPropertyOp5
 70
     1
102
RTVSPropertyOp6
 70
     1
102
RTVSPropertyOp7
 70
     1
102
RTVSPropertyOp8
 70
     1
102
RTVSPropertyOp9
 70
     1
102
RTVSPropertyOp10
 70
     1
102
RTVSPropertyOp11
 70
     1
102
RTVSPropertyOp12
 70
     1
102
RTVSPropertyOp13
 70
     1
102
RTVSPropertyOp14
 70
     1
102
RTVSPropertyOp15
 70
     1
102
RTVSPropertyOp16
 70
     1
102
RTVSPropertyOp17
 70
     1
102
RTVSPropertyOp18
 70
     1
102
RTVSPropertyOp19
 70
     1
102
RTVSPropertyOp20
 70
     1
102
RTVSPropertyOp21
 70
     1
102
RTVSPropertyOp22
 70
     1
102
RTVSPropertyOp23
 70
     1
102
RTVSPropertyOp24
 70
     1
102
RTVSPropertyOp25
 70
     1
102
RTVSPropertyOp26
 70
     1
102
RTVSPropertyOp27
 70
     1
102
RTVSPropertyOp28
 70
     1
102
RTVSPropertyOp29
 70
     1
102
RTVSPropertyOp30
 70
     1
102
RTVSPropertyOp31
 70
     1
102
RTVSPropertyOp32
 70
     1
102
RTVSPropertyOp33
 70
     1
102
RTVSPropertyOp34
 70
     1
102
RTVSPropertyOp35
 70
     1
102
RTVSPropertyOp36
 70
     1
102
RTVSPropertyOp37
 70
     1
102
RTVSPropertyOp38
 70
     1
102
RTVSPropertyOp39
 70
     1
102
RTVSPropertyOp40
 70
     1
102
RTVSPropertyOp41
 70
     1
102
RTVSPropertyOp42
 70
     1
102
RTVSPropertyOp43
 70
     1
102
RTVSPropertyOp44
 70
     1
102
RTVSPropertyOp45
 70
     1
102
RTVSPropertyOp46
 70
     1
102
RTVSPropertyOp47
 70
     1
102
RTVSPropertyOp48
 70
     1
102
RTVSPropertyOp49
 70
     1
102
RTVSPropertyOp50
 70
     1
102
RTVSPropertyOp51
 70
     0
102
RTVSPropertyOp52
 70
     0
102
RTVSPropertyOp53
 70
     1
102
RTVSPropertyOp54
 70
     1
102
RTVSPropertyOp55
 70
     1
102
RTVSPropertyOp56
 70
     1
102
RTVSPropertyOp57
 70
     1
102
RTVSPropertyOp58
 70
     1
102
RTVSPropertyOp59
 70
     1
102
RTVSPropertyOp60
 70
     1
102
RTVSPropertyOp61
 70
     1
102
RTVSPropertyOp62
 70
     1
  0
XRECORD
  5
9A5
102
{ACAD_REACTORS
330
9A4
102
}
330
9A4
100
AcDbXrecord
280
     1
102
RTVSPost2010Prop28
280
     0
102
RTVSPost2010PropOp28
 70
     1
102
RTVSPost2010Prop29
280
     1
102
RTVSPost2010PropOp29
 70
     1
102
RTVSPost2010Prop30
280
     1
102
RTVSPost2010PropOp30
 70
     1
102
RTVSPost2010Prop31
280
     0
102
RTVSPost2010PropOp31
 70
     1
102
RTVSPost2010Prop32
280
     0
102
RTVSPost2010PropOp32
 70
     1
102
RTVSPost2010Prop33
280
     0
102
RTVSPost2010PropOp33
 70
     1
102
RTVSPost2010Prop34
280
     0
102
RTVSPost2010PropOp34
 70
     1
102
RTVSPost2010Prop35
280
     0
102
RTVSPost2010PropOp35
 70
     1
102
RTVSPost2010Prop36
280
     0
102
RTVSPost2010PropOp36
 70
     1
102
RTVSPost2010Prop37
 90
       50
102
RTVSPost2010PropOp37
 70
     1
102
RTVSPost2010Prop38
140
0.0
102
RTVSPost2010PropOp38
 70
     1
102
RTVSPost2010Prop39
140
1.0
102
RTVSPost2010PropOp39
 70
     1
102
RTVSPost2010Prop40
 90
        0
102
RTVSPost2010PropOp40
 70
     1
102
RTVSPost2010Prop41ColorIndex
 90
       18
102
RTVSPost2010Prop41ColorRGB
 90
        0
102
RTVSPost2010PropOp41
 70
     1
102
RTVSPost2010Prop42
 90
       50
102
RTVSPost2010PropOp42
 70
     1
102
RTVSPost2010Prop43
 90
        3
102
RTVSPost2010PropOp43
 70
     1
102
RTVSPost2010Prop44ColorIndex
 90
        5
102
RTVSPost2010Prop44ColorRGB
 90
      255
102
RTVSPost2010PropOp44
 70
     1
102
RTVSPost2010Prop45
280
     0
102
RTVSPost2010PropOp45
 70
     1
102
RTVSPost2010Prop46
 90
       50
102
RTVSPost2010PropOp46
 70
     1
102
RTVSPost2010Prop47
 90
       50
102
RTVSPost2010PropOp47
 70
     1
102
RTVSPost2010Prop48
 90
       50
102
RTVSPost2010PropOp48
 70
     1
102
RTVSPost2010Prop49
280
     0
102
RTVSPost2010PropOp49
 70
     1
102
RTVSPost2010Prop50
 90
       50
102
RTVSPost2010PropOp50
 70
     1
102
RTVSPost2010Prop51ColorIndex
 90
      256
102
RTVSPost2010Prop51ColorRGB
 90
-16777216
102
RTVSPost2010PropOp51
 70
     0
102
RTVSPost2010Prop52
140
1.0
102
RTVSPost2010PropOp52
 70
     0
102
RTVSPost2010Prop53
 90
        2
102
RTVSPost2010PropOp53
 70
     1
102
RTVSPost2010Prop54
  1
strokes_ogs.tif
102
RTVSPost2010PropOp54
 70
     1
102
RTVSPost2010Prop55
280
     0
102
RTVSPost2010PropOp55
 70
     1
102
RTVSPost2010Prop56
140
1.0
102
RTVSPost2010PropOp56
 70
     1
102
RTVSPost2010Prop57
140
1.0
102
RTVSPost2010PropOp57
 70
     1
102
RTVSPropertyOp0
 70
     1
102
RTVSPropertyOp1
 70
     1
102
RTVSPropertyOp2
 70
     1
102
RTVSPropertyOp3
 70
     1
102
RTVSPropertyOp4
 70
     1
102
RTVSPropertyOp5
 70
     1
102
RTVSPropertyOp6
 70
     1
102
RTVSPropertyOp7
 70
     1
102
RTVSPropertyOp8
 70
     1
102
RTVSPropertyOp9
 70
     1
102
RTVSPropertyOp10
 70
     1
102
RTVSPropertyOp11
 70
     1
102
RTVSPropertyOp12
 70
     1
102
RTVSPropertyOp13
 70
     1
102
RTVSPropertyOp14
 70
     1
102
RTVSPropertyOp15
 70
     1
102
RTVSPropertyOp16
 70
     1
102
RTVSPropertyOp17
 70
     1
102
RTVSPropertyOp18
 70
     1
102
RTVSPropertyOp19
 70
     1
102
RTVSPropertyOp20
 70
     1
102
RTVSPropertyOp21
 70
     1
102
RTVSPropertyOp22
 70
     1
102
RTVSPropertyOp23
 70
     1
102
RTVSPropertyOp24
 70
     1
102
RTVSPropertyOp25
 70
     1
102
RTVSPropertyOp26
 70
     1
102
RTVSPropertyOp27
 70
     1
102
RTVSPropertyOp28
 70
     1
102
RTVSPropertyOp29
 70
     1
102
RTVSPropertyOp30
 70
     1
102
RTVSPropertyOp31
 70
     1
102
RTVSPropertyOp32
 70
     1
102
RTVSPropertyOp33
 70
     1
102
RTVSPropertyOp34
 70
     1
102
RTVSPropertyOp35
 70
     1
102
RTVSPropertyOp36
 70
     1
102
RTVSPropertyOp37
 70
     1
102
RTVSPropertyOp38
 70
     1
102
RTVSPropertyOp39
 70
     1
102
RTVSPropertyOp40
 70
     1
102
RTVSPropertyOp41
 70
     1
102
RTVSPropertyOp42
 70
     1
102
RTVSPropertyOp43
 70
     1
102
RTVSPropertyOp44
 70
     1
102
RTVSPropertyOp45
 70
     1
102
RTVSPropertyOp46
 70
     1
102
RTVSPropertyOp47
 70
     1
102
RTVSPropertyOp48
 70
     1
102
RTVSPropertyOp49
 70
     1
102
RTVSPropertyOp50
 70
     1
102
RTVSPropertyOp51
 70
     0
102
RTVSPropertyOp52
 70
     0
102
RTVSPropertyOp53
 70
     1
102
RTVSPropertyOp54
 70
     1
102
RTVSPropertyOp55
 70
     1
102
RTVSPropertyOp56
 70
     1
102
RTVSPropertyOp57
 70
     1
102
RTVSPropertyOp58
 70
     1
102
RTVSPropertyOp59
 70
     1
102
RTVSPropertyOp60
 70
     1
102
RTVSPropertyOp61
 70
     1
102
RTVSPropertyOp62
 70
     1
  0
XRECORD
  5
9A7
102
{ACAD_REACTORS
330
9A6
102
}
330
9A6
100
AcDbXrecord
280
     1
102
RTVSPost2010Prop28
280
     0
102
RTVSPost2010PropOp28
 70
     1
102
RTVSPost2010Prop29
280
     1
102
RTVSPost2010PropOp29
 70
     1
102
RTVSPost2010Prop30
280
     1
102
RTVSPost2010PropOp30
 70
     1
102
RTVSPost2010Prop31
280
     0
102
RTVSPost2010PropOp31
 70
     1
102
RTVSPost2010Prop32
280
     0
102
RTVSPost2010PropOp32
 70
     1
102
RTVSPost2010Prop33
280
     0
102
RTVSPost2010PropOp33
 70
     1
102
RTVSPost2010Prop34
280
     0
102
RTVSPost2010PropOp34
 70
     1
102
RTVSPost2010Prop35
280
     0
102
RTVSPost2010PropOp35
 70
     1
102
RTVSPost2010Prop36
280
     0
102
RTVSPost2010PropOp36
 70
     1
102
RTVSPost2010Prop37
 90
       50
102
RTVSPost2010PropOp37
 70
     1
102
RTVSPost2010Prop38
140
0.0
102
RTVSPost2010PropOp38
 70
     1
102
RTVSPost2010Prop39
140
1.0
102
RTVSPost2010PropOp39
 70
     1
102
RTVSPost2010Prop40
 90
        0
102
RTVSPost2010PropOp40
 70
     1
102
RTVSPost2010Prop41ColorIndex
 90
       18
102
RTVSPost2010Prop41ColorRGB
 90
        0
102
RTVSPost2010PropOp41
 70
     1
102
RTVSPost2010Prop42
 90
       50
102
RTVSPost2010PropOp42
 70
     1
102
RTVSPost2010Prop43
 90
        3
102
RTVSPost2010PropOp43
 70
     1
102
RTVSPost2010Prop44ColorIndex
 90
        5
102
RTVSPost2010Prop44ColorRGB
 90
      255
102
RTVSPost2010PropOp44
 70
     1
102
RTVSPost2010Prop45
280
     0
102
RTVSPost2010PropOp45
 70
     1
102
RTVSPost2010Prop46
 90
       50
102
RTVSPost2010PropOp46
 70
     1
102
RTVSPost2010Prop47
 90
       50
102
RTVSPost2010PropOp47
 70
     1
102
RTVSPost2010Prop48
 90
       50
102
RTVSPost2010PropOp48
 70
     1
102
RTVSPost2010Prop49
280
     0
102
RTVSPost2010PropOp49
 70
     1
102
RTVSPost2010Prop50
 90
       50
102
RTVSPost2010PropOp50
 70
     1
102
RTVSPost2010Prop51ColorIndex
 90
      256
102
RTVSPost2010Prop51ColorRGB
 90
-16777216
102
RTVSPost2010PropOp51
 70
     0
102
RTVSPost2010Prop52
140
1.0
102
RTVSPost2010PropOp52
 70
     0
102
RTVSPost2010Prop53
 90
        2
102
RTVSPost2010PropOp53
 70
     1
102
RTVSPost2010Prop54
  1
strokes_ogs.tif
102
RTVSPost2010PropOp54
 70
     1
102
RTVSPost2010Prop55
280
     0
102
RTVSPost2010PropOp55
 70
     1
102
RTVSPost2010Prop56
140
1.0
102
RTVSPost2010PropOp56
 70
     1
102
RTVSPost2010Prop57
140
1.0
102
RTVSPost2010PropOp57
 70
     1
102
RTVSPropertyOp0
 70
     1
102
RTVSPropertyOp1
 70
     1
102
RTVSPropertyOp2
 70
     1
102
RTVSPropertyOp3
 70
     1
102
RTVSPropertyOp4
 70
     1
102
RTVSPropertyOp5
 70
     1
102
RTVSPropertyOp6
 70
     1
102
RTVSPropertyOp7
 70
     1
102
RTVSPropertyOp8
 70
     1
102
RTVSPropertyOp9
 70
     1
102
RTVSPropertyOp10
 70
     1
102
RTVSPropertyOp11
 70
     1
102
RTVSPropertyOp12
 70
     1
102
RTVSPropertyOp13
 70
     1
102
RTVSPropertyOp14
 70
     1
102
RTVSPropertyOp15
 70
     1
102
RTVSPropertyOp16
 70
     1
102
RTVSPropertyOp17
 70
     1
102
RTVSPropertyOp18
 70
     1
102
RTVSPropertyOp19
 70
     1
102
RTVSPropertyOp20
 70
     1
102
RTVSPropertyOp21
 70
     1
102
RTVSPropertyOp22
 70
     1
102
RTVSPropertyOp23
 70
     1
102
RTVSPropertyOp24
 70
     1
102
RTVSPropertyOp25
 70
     1
102
RTVSPropertyOp26
 70
     1
102
RTVSPropertyOp27
 70
     1
102
RTVSPropertyOp28
 70
     1
102
RTVSPropertyOp29
 70
     1
102
RTVSPropertyOp30
 70
     1
102
RTVSPropertyOp31
 70
     1
102
RTVSPropertyOp32
 70
     1
102
RTVSPropertyOp33
 70
     1
102
RTVSPropertyOp34
 70
     1
102
RTVSPropertyOp35
 70
     1
102
RTVSPropertyOp36
 70
     1
102
RTVSPropertyOp37
 70
     1
102
RTVSPropertyOp38
 70
     1
102
RTVSPropertyOp39
 70
     1
102
RTVSPropertyOp40
 70
     1
102
RTVSPropertyOp41
 70
     1
102
RTVSPropertyOp42
 70
     1
102
RTVSPropertyOp43
 70
     1
102
RTVSPropertyOp44
 70
     1
102
RTVSPropertyOp45
 70
     1
102
RTVSPropertyOp46
 70
     1
102
RTVSPropertyOp47
 70
     1
102
RTVSPropertyOp48
 70
     1
102
RTVSPropertyOp49
 70
     1
102
RTVSPropertyOp50
 70
     1
102
RTVSPropertyOp51
 70
     0
102
RTVSPropertyOp52
 70
     0
102
RTVSPropertyOp53
 70
     1
102
RTVSPropertyOp54
 70
     1
102
RTVSPropertyOp55
 70
     1
102
RTVSPropertyOp56
 70
     1
102
RTVSPropertyOp57
 70
     1
102
RTVSPropertyOp58
 70
     1
102
RTVSPropertyOp59
 70
     1
102
RTVSPropertyOp60
 70
     1
102
RTVSPropertyOp61
 70
     1
102
RTVSPropertyOp62
 70
     1
  0
XRECORD
  5
9A9
102
{ACAD_REACTORS
330
9A8
102
}
330
9A8
100
AcDbXrecord
280
     1
102
RTVSPost2010Prop28
280
     0
102
RTVSPost2010PropOp28
 70
     1
102
RTVSPost2010Prop29
280
     1
102
RTVSPost2010PropOp29
 70
     1
102
RTVSPost2010Prop30
280
     1
102
RTVSPost2010PropOp30
 70
     1
102
RTVSPost2010Prop31
280
     0
102
RTVSPost2010PropOp31
 70
     1
102
RTVSPost2010Prop32
280
     0
102
RTVSPost2010PropOp32
 70
     1
102
RTVSPost2010Prop33
280
     0
102
RTVSPost2010PropOp33
 70
     1
102
RTVSPost2010Prop34
280
     0
102
RTVSPost2010PropOp34
 70
     1
102
RTVSPost2010Prop35
280
     0
102
RTVSPost2010PropOp35
 70
     1
102
RTVSPost2010Prop36
280
     0
102
RTVSPost2010PropOp36
 70
     1
102
RTVSPost2010Prop37
 90
       50
102
RTVSPost2010PropOp37
 70
     1
102
RTVSPost2010Prop38
140
0.0
102
RTVSPost2010PropOp38
 70
     1
102
RTVSPost2010Prop39
140
1.0
102
RTVSPost2010PropOp39
 70
     1
102
RTVSPost2010Prop40
 90
        0
102
RTVSPost2010PropOp40
 70
     1
102
RTVSPost2010Prop41ColorIndex
 90
       18
102
RTVSPost2010Prop41ColorRGB
 90
        0
102
RTVSPost2010PropOp41
 70
     1
102
RTVSPost2010Prop42
 90
       50
102
RTVSPost2010PropOp42
 70
     1
102
RTVSPost2010Prop43
 90
        3
102
RTVSPost2010PropOp43
 70
     1
102
RTVSPost2010Prop44ColorIndex
 90
        5
102
RTVSPost2010Prop44ColorRGB
 90
      255
102
RTVSPost2010PropOp44
 70
     1
102
RTVSPost2010Prop45
280
     0
102
RTVSPost2010PropOp45
 70
     1
102
RTVSPost2010Prop46
 90
       50
102
RTVSPost2010PropOp46
 70
     1
102
RTVSPost2010Prop47
 90
       50
102
RTVSPost2010PropOp47
 70
     1
102
RTVSPost2010Prop48
 90
       50
102
RTVSPost2010PropOp48
 70
     1
102
RTVSPost2010Prop49
280
     0
102
RTVSPost2010PropOp49
 70
     1
102
RTVSPost2010Prop50
 90
       50
102
RTVSPost2010PropOp50
 70
     1
102
RTVSPost2010Prop51ColorIndex
 90
      256
102
RTVSPost2010Prop51ColorRGB
 90
-16777216
102
RTVSPost2010PropOp51
 70
     0
102
RTVSPost2010Prop52
140
1.0
102
RTVSPost2010PropOp52
 70
     0
102
RTVSPost2010Prop53
 90
        2
102
RTVSPost2010PropOp53
 70
     1
102
RTVSPost2010Prop54
  1
strokes_ogs.tif
102
RTVSPost2010PropOp54
 70
     1
102
RTVSPost2010Prop55
280
     0
102
RTVSPost2010PropOp55
 70
     1
102
RTVSPost2010Prop56
140
1.0
102
RTVSPost2010PropOp56
 70
     1
102
RTVSPost2010Prop57
140
1.0
102
RTVSPost2010PropOp57
 70
     1
102
RTVSPropertyOp0
 70
     1
102
RTVSPropertyOp1
 70
     1
102
RTVSPropertyOp2
 70
     1
102
RTVSPropertyOp3
 70
     1
102
RTVSPropertyOp4
 70
     1
102
RTVSPropertyOp5
 70
     1
102
RTVSPropertyOp6
 70
     1
102
RTVSPropertyOp7
 70
     1
102
RTVSPropertyOp8
 70
     1
102
RTVSPropertyOp9
 70
     1
102
RTVSPropertyOp10
 70
     1
102
RTVSPropertyOp11
 70
     1
102
RTVSPropertyOp12
 70
     1
102
RTVSPropertyOp13
 70
     1
102
RTVSPropertyOp14
 70
     1
102
RTVSPropertyOp15
 70
     1
102
RTVSPropertyOp16
 70
     1
102
RTVSPropertyOp17
 70
     1
102
RTVSPropertyOp18
 70
     1
102
RTVSPropertyOp19
 70
     1
102
RTVSPropertyOp20
 70
     1
102
RTVSPropertyOp21
 70
     1
102
RTVSPropertyOp22
 70
     1
102
RTVSPropertyOp23
 70
     1
102
RTVSPropertyOp24
 70
     1
102
RTVSPropertyOp25
 70
     1
102
RTVSPropertyOp26
 70
     1
102
RTVSPropertyOp27
 70
     1
102
RTVSPropertyOp28
 70
     1
102
RTVSPropertyOp29
 70
     1
102
RTVSPropertyOp30
 70
     1
102
RTVSPropertyOp31
 70
     1
102
RTVSPropertyOp32
 70
     1
102
RTVSPropertyOp33
 70
     1
102
RTVSPropertyOp34
 70
     1
102
RTVSPropertyOp35
 70
     1
102
RTVSPropertyOp36
 70
     1
102
RTVSPropertyOp37
 70
     1
102
RTVSPropertyOp38
 70
     1
102
RTVSPropertyOp39
 70
     1
102
RTVSPropertyOp40
 70
     1
102
RTVSPropertyOp41
 70
     1
102
RTVSPropertyOp42
 70
     1
102
RTVSPropertyOp43
 70
     1
102
RTVSPropertyOp44
 70
     1
102
RTVSPropertyOp45
 70
     1
102
RTVSPropertyOp46
 70
     1
102
RTVSPropertyOp47
 70
     1
102
RTVSPropertyOp48
 70
     1
102
RTVSPropertyOp49
 70
     1
102
RTVSPropertyOp50
 70
     1
102
RTVSPropertyOp51
 70
     0
102
RTVSPropertyOp52
 70
     0
102
RTVSPropertyOp53
 70
     1
102
RTVSPropertyOp54
 70
     1
102
RTVSPropertyOp55
 70
     1
102
RTVSPropertyOp56
 70
     1
102
RTVSPropertyOp57
 70
     1
102
RTVSPropertyOp58
 70
     1
102
RTVSPropertyOp59
 70
     1
102
RTVSPropertyOp60
 70
     1
102
RTVSPropertyOp61
 70
     1
102
RTVSPropertyOp62
 70
     1
  0
XRECORD
  5
9AB
102
{ACAD_REACTORS
330
9AA
102
}
330
9AA
100
AcDbXrecord
280
     1
102
RTVSPost2010Prop28
280
     0
102
RTVSPost2010PropOp28
 70
     1
102
RTVSPost2010Prop29
280
     1
102
RTVSPost2010PropOp29
 70
     1
102
RTVSPost2010Prop30
280
     1
102
RTVSPost2010PropOp30
 70
     1
102
RTVSPost2010Prop31
280
     0
102
RTVSPost2010PropOp31
 70
     1
102
RTVSPost2010Prop32
280
     0
102
RTVSPost2010PropOp32
 70
     1
102
RTVSPost2010Prop33
280
     0
102
RTVSPost2010PropOp33
 70
     1
102
RTVSPost2010Prop34
280
     0
102
RTVSPost2010PropOp34
 70
     1
102
RTVSPost2010Prop35
280
     0
102
RTVSPost2010PropOp35
 70
     1
102
RTVSPost2010Prop36
280
     0
102
RTVSPost2010PropOp36
 70
     1
102
RTVSPost2010Prop37
 90
       50
102
RTVSPost2010PropOp37
 70
     1
102
RTVSPost2010Prop38
140
0.0
102
RTVSPost2010PropOp38
 70
     1
102
RTVSPost2010Prop39
140
1.0
102
RTVSPost2010PropOp39
 70
     1
102
RTVSPost2010Prop40
 90
        0
102
RTVSPost2010PropOp40
 70
     1
102
RTVSPost2010Prop41ColorIndex
 90
       18
102
RTVSPost2010Prop41ColorRGB
 90
        0
102
RTVSPost2010PropOp41
 70
     1
102
RTVSPost2010Prop42
 90
       50
102
RTVSPost2010PropOp42
 70
     1
102
RTVSPost2010Prop43
 90
        3
102
RTVSPost2010PropOp43
 70
     1
102
RTVSPost2010Prop44ColorIndex
 90
        5
102
RTVSPost2010Prop44ColorRGB
 90
      255
102
RTVSPost2010PropOp44
 70
     1
102
RTVSPost2010Prop45
280
     0
102
RTVSPost2010PropOp45
 70
     1
102
RTVSPost2010Prop46
 90
       50
102
RTVSPost2010PropOp46
 70
     1
102
RTVSPost2010Prop47
 90
       50
102
RTVSPost2010PropOp47
 70
     1
102
RTVSPost2010Prop48
 90
       50
102
RTVSPost2010PropOp48
 70
     1
102
RTVSPost2010Prop49
280
     0
102
RTVSPost2010PropOp49
 70
     1
102
RTVSPost2010Prop50
 90
       50
102
RTVSPost2010PropOp50
 70
     1
102
RTVSPost2010Prop51ColorIndex
 90
      256
102
RTVSPost2010Prop51ColorRGB
 90
-16777216
102
RTVSPost2010PropOp51
 70
     0
102
RTVSPost2010Prop52
140
1.0
102
RTVSPost2010PropOp52
 70
     0
102
RTVSPost2010Prop53
 90
        2
102
RTVSPost2010PropOp53
 70
     1
102
RTVSPost2010Prop54
  1
strokes_ogs.tif
102
RTVSPost2010PropOp54
 70
     1
102
RTVSPost2010Prop55
280
     0
102
RTVSPost2010PropOp55
 70
     1
102
RTVSPost2010Prop56
140
1.0
102
RTVSPost2010PropOp56
 70
     1
102
RTVSPost2010Prop57
140
1.0
102
RTVSPost2010PropOp57
 70
     1
102
RTVSPropertyOp0
 70
     1
102
RTVSPropertyOp1
 70
     1
102
RTVSPropertyOp2
 70
     1
102
RTVSPropertyOp3
 70
     1
102
RTVSPropertyOp4
 70
     1
102
RTVSPropertyOp5
 70
     1
102
RTVSPropertyOp6
 70
     1
102
RTVSPropertyOp7
 70
     1
102
RTVSPropertyOp8
 70
     1
102
RTVSPropertyOp9
 70
     1
102
RTVSPropertyOp10
 70
     1
102
RTVSPropertyOp11
 70
     1
102
RTVSPropertyOp12
 70
     1
102
RTVSPropertyOp13
 70
     1
102
RTVSPropertyOp14
 70
     1
102
RTVSPropertyOp15
 70
     1
102
RTVSPropertyOp16
 70
     1
102
RTVSPropertyOp17
 70
     1
102
RTVSPropertyOp18
 70
     1
102
RTVSPropertyOp19
 70
     1
102
RTVSPropertyOp20
 70
     1
102
RTVSPropertyOp21
 70
     1
102
RTVSPropertyOp22
 70
     1
102
RTVSPropertyOp23
 70
     1
102
RTVSPropertyOp24
 70
     1
102
RTVSPropertyOp25
 70
     1
102
RTVSPropertyOp26
 70
     1
102
RTVSPropertyOp27
 70
     1
102
RTVSPropertyOp28
 70
     1
102
RTVSPropertyOp29
 70
     1
102
RTVSPropertyOp30
 70
     1
102
RTVSPropertyOp31
 70
     1
102
RTVSPropertyOp32
 70
     1
102
RTVSPropertyOp33
 70
     1
102
RTVSPropertyOp34
 70
     1
102
RTVSPropertyOp35
 70
     1
102
RTVSPropertyOp36
 70
     1
102
RTVSPropertyOp37
 70
     1
102
RTVSPropertyOp38
 70
     1
102
RTVSPropertyOp39
 70
     1
102
RTVSPropertyOp40
 70
     1
102
RTVSPropertyOp41
 70
     1
102
RTVSPropertyOp42
 70
     1
102
RTVSPropertyOp43
 70
     1
102
RTVSPropertyOp44
 70
     1
102
RTVSPropertyOp45
 70
     1
102
RTVSPropertyOp46
 70
     1
102
RTVSPropertyOp47
 70
     1
102
RTVSPropertyOp48
 70
     1
102
RTVSPropertyOp49
 70
     1
102
RTVSPropertyOp50
 70
     1
102
RTVSPropertyOp51
 70
     0
102
RTVSPropertyOp52
 70
     0
102
RTVSPropertyOp53
 70
     1
102
RTVSPropertyOp54
 70
     1
102
RTVSPropertyOp55
 70
     1
102
RTVSPropertyOp56
 70
     1
102
RTVSPropertyOp57
 70
     1
102
RTVSPropertyOp58
 70
     1
102
RTVSPropertyOp59
 70
     1
102
RTVSPropertyOp60
 70
     1
102
RTVSPropertyOp61
 70
     1
102
RTVSPropertyOp62
 70
     1
  0
XRECORD
  5
9B3
102
{ACAD_REACTORS
330
9B2
102
}
330
9B2
100
AcDbXrecord
280
     1
102
RTVSPost2010Prop28
280
     0
102
RTVSPost2010PropOp28
 70
     1
102
RTVSPost2010Prop29
280
     1
102
RTVSPost2010PropOp29
 70
     1
102
RTVSPost2010Prop30
280
     1
102
RTVSPost2010PropOp30
 70
     1
102
RTVSPost2010Prop31
280
     0
102
RTVSPost2010PropOp31
 70
     1
102
RTVSPost2010Prop32
280
     0
102
RTVSPost2010PropOp32
 70
     1
102
RTVSPost2010Prop33
280
     0
102
RTVSPost2010PropOp33
 70
     1
102
RTVSPost2010Prop34
280
     0
102
RTVSPost2010PropOp34
 70
     1
102
RTVSPost2010Prop35
280
     0
102
RTVSPost2010PropOp35
 70
     1
102
RTVSPost2010Prop36
280
     0
102
RTVSPost2010PropOp36
 70
     1
102
RTVSPost2010Prop37
 90
       50
102
RTVSPost2010PropOp37
 70
     1
102
RTVSPost2010Prop38
140
0.0
102
RTVSPost2010PropOp38
 70
     1
102
RTVSPost2010Prop39
140
1.0
102
RTVSPost2010PropOp39
 70
     1
102
RTVSPost2010Prop40
 90
        0
102
RTVSPost2010PropOp40
 70
     1
102
RTVSPost2010Prop41ColorIndex
 90
       18
102
RTVSPost2010Prop41ColorRGB
 90
        0
102
RTVSPost2010PropOp41
 70
     1
102
RTVSPost2010Prop42
 90
       50
102
RTVSPost2010PropOp42
 70
     1
102
RTVSPost2010Prop43
 90
        3
102
RTVSPost2010PropOp43
 70
     1
102
RTVSPost2010Prop44ColorIndex
 90
        5
102
RTVSPost2010Prop44ColorRGB
 90
      255
102
RTVSPost2010PropOp44
 70
     1
102
RTVSPost2010Prop45
280
     0
102
RTVSPost2010PropOp45
 70
     1
102
RTVSPost2010Prop46
 90
       50
102
RTVSPost2010PropOp46
 70
     1
102
RTVSPost2010Prop47
 90
       50
102
RTVSPost2010PropOp47
 70
     1
102
RTVSPost2010Prop48
 90
       50
102
RTVSPost2010PropOp48
 70
     1
102
RTVSPost2010Prop49
280
     0
102
RTVSPost2010PropOp49
 70
     1
102
RTVSPost2010Prop50
 90
       50
102
RTVSPost2010PropOp50
 70
     1
102
RTVSPost2010Prop51ColorIndex
 90
      256
102
RTVSPost2010Prop51ColorRGB
 90
-16777216
102
RTVSPost2010PropOp51
 70
     0
102
RTVSPost2010Prop52
140
1.0
102
RTVSPost2010PropOp52
 70
     0
102
RTVSPost2010Prop53
 90
        2
102
RTVSPost2010PropOp53
 70
     1
102
RTVSPost2010Prop54
  1
strokes_ogs.tif
102
RTVSPost2010PropOp54
 70
     1
102
RTVSPost2010Prop55
280
     0
102
RTVSPost2010PropOp55
 70
     1
102
RTVSPost2010Prop56
140
1.0
102
RTVSPost2010PropOp56
 70
     1
102
RTVSPost2010Prop57
140
1.0
102
RTVSPost2010PropOp57
 70
     1
102
RTVSPropertyOp0
 70
     1
102
RTVSPropertyOp1
 70
     1
102
RTVSPropertyOp2
 70
     1
102
RTVSPropertyOp3
 70
     1
102
RTVSPropertyOp4
 70
     1
102
RTVSPropertyOp5
 70
     1
102
RTVSPropertyOp6
 70
     1
102
RTVSPropertyOp7
 70
     1
102
RTVSPropertyOp8
 70
     1
102
RTVSPropertyOp9
 70
     1
102
RTVSPropertyOp10
 70
     1
102
RTVSPropertyOp11
 70
     1
102
RTVSPropertyOp12
 70
     1
102
RTVSPropertyOp13
 70
     1
102
RTVSPropertyOp14
 70
     1
102
RTVSPropertyOp15
 70
     1
102
RTVSPropertyOp16
 70
     1
102
RTVSPropertyOp17
 70
     1
102
RTVSPropertyOp18
 70
     1
102
RTVSPropertyOp19
 70
     1
102
RTVSPropertyOp20
 70
     1
102
RTVSPropertyOp21
 70
     1
102
RTVSPropertyOp22
 70
     1
102
RTVSPropertyOp23
 70
     1
102
RTVSPropertyOp24
 70
     1
102
RTVSPropertyOp25
 70
     1
102
RTVSPropertyOp26
 70
     1
102
RTVSPropertyOp27
 70
     1
102
RTVSPropertyOp28
 70
     1
102
RTVSPropertyOp29
 70
     1
102
RTVSPropertyOp30
 70
     1
102
RTVSPropertyOp31
 70
     1
102
RTVSPropertyOp32
 70
     1
102
RTVSPropertyOp33
 70
     1
102
RTVSPropertyOp34
 70
     1
102
RTVSPropertyOp35
 70
     1
102
RTVSPropertyOp36
 70
     1
102
RTVSPropertyOp37
 70
     1
102
RTVSPropertyOp38
 70
     1
102
RTVSPropertyOp39
 70
     1
102
RTVSPropertyOp40
 70
     1
102
RTVSPropertyOp41
 70
     1
102
RTVSPropertyOp42
 70
     1
102
RTVSPropertyOp43
 70
     1
102
RTVSPropertyOp44
 70
     1
102
RTVSPropertyOp45
 70
     1
102
RTVSPropertyOp46
 70
     1
102
RTVSPropertyOp47
 70
     1
102
RTVSPropertyOp48
 70
     1
102
RTVSPropertyOp49
 70
     1
102
RTVSPropertyOp50
 70
     1
102
RTVSPropertyOp51
 70
     0
102
RTVSPropertyOp52
 70
     0
102
RTVSPropertyOp53
 70
     1
102
RTVSPropertyOp54
 70
     1
102
RTVSPropertyOp55
 70
     1
102
RTVSPropertyOp56
 70
     1
102
RTVSPropertyOp57
 70
     1
102
RTVSPropertyOp58
 70
     1
102
RTVSPropertyOp59
 70
     1
102
RTVSPropertyOp60
 70
     1
102
RTVSPropertyOp61
 70
     1
102
RTVSPropertyOp62
 70
     1
  0
XRECORD
  5
9CF
102
{ACAD_REACTORS
330
9CE
102
}
330
9CE
100
AcDbXrecord
280
     1
102
RTVSPost2010Prop28
280
     0
102
RTVSPost2010PropOp28
 70
     1
102
RTVSPost2010Prop29
280
     1
102
RTVSPost2010PropOp29
 70
     1
102
RTVSPost2010Prop30
280
     1
102
RTVSPost2010PropOp30
 70
     1
102
RTVSPost2010Prop31
280
     0
102
RTVSPost2010PropOp31
 70
     1
102
RTVSPost2010Prop32
280
     0
102
RTVSPost2010PropOp32
 70
     1
102
RTVSPost2010Prop33
280
     0
102
RTVSPost2010PropOp33
 70
     1
102
RTVSPost2010Prop34
280
     0
102
RTVSPost2010PropOp34
 70
     1
102
RTVSPost2010Prop35
280
     0
102
RTVSPost2010PropOp35
 70
     1
102
RTVSPost2010Prop36
280
     0
102
RTVSPost2010PropOp36
 70
     1
102
RTVSPost2010Prop37
 90
       50
102
RTVSPost2010PropOp37
 70
     0
102
RTVSPost2010Prop38
140
0.0
102
RTVSPost2010PropOp38
 70
     0
102
RTVSPost2010Prop39
140
1.0
102
RTVSPost2010PropOp39
 70
     0
102
RTVSPost2010Prop40
 90
        0
102
RTVSPost2010PropOp40
 70
     0
102
RTVSPost2010Prop41ColorIndex
 90
       18
102
RTVSPost2010Prop41ColorRGB
 90
        0
102
RTVSPost2010PropOp41
 70
     0
102
RTVSPost2010Prop42
 90
       50
102
RTVSPost2010PropOp42
 70
     0
102
RTVSPost2010Prop43
 90
        3
102
RTVSPost2010PropOp43
 70
     0
102
RTVSPost2010Prop44ColorIndex
 90
        5
102
RTVSPost2010Prop44ColorRGB
 90
      255
102
RTVSPost2010PropOp44
 70
     0
102
RTVSPost2010Prop45
280
     0
102
RTVSPost2010PropOp45
 70
     1
102
RTVSPost2010Prop46
 90
       50
102
RTVSPost2010PropOp46
 70
     0
102
RTVSPost2010Prop47
 90
       50
102
RTVSPost2010PropOp47
 70
     0
102
RTVSPost2010Prop48
 90
       50
102
RTVSPost2010PropOp48
 70
     0
102
RTVSPost2010Prop49
280
     0
102
RTVSPost2010PropOp49
 70
     1
102
RTVSPost2010Prop50
 90
       50
102
RTVSPost2010PropOp50
 70
     0
102
RTVSPost2010Prop51ColorIndex
 90
      256
102
RTVSPost2010Prop51ColorRGB
 90
-16777216
102
RTVSPost2010PropOp51
 70
     0
102
RTVSPost2010Prop52
140
1.0
102
RTVSPost2010PropOp52
 70
     0
102
RTVSPost2010Prop53
 90
        2
102
RTVSPost2010PropOp53
 70
     0
102
RTVSPost2010Prop54
  1
strokes_ogs.tif
102
RTVSPost2010PropOp54
 70
     0
102
RTVSPost2010Prop55
280
     0
102
RTVSPost2010PropOp55
 70
     1
102
RTVSPost2010Prop56
140
1.0
102
RTVSPost2010PropOp56
 70
     0
102
RTVSPost2010Prop57
140
1.0
102
RTVSPost2010PropOp57
 70
     0
102
RTVSPropertyOp0
 70
     0
102
RTVSPropertyOp1
 70
     0
102
RTVSPropertyOp2
 70
     0
102
RTVSPropertyOp3
 70
     0
102
RTVSPropertyOp4
 70
     0
102
RTVSPropertyOp5
 70
     0
102
RTVSPropertyOp6
 70
     0
102
RTVSPropertyOp7
 70
     0
102
RTVSPropertyOp8
 70
     0
102
RTVSPropertyOp9
 70
     0
102
RTVSPropertyOp10
 70
     0
102
RTVSPropertyOp11
 70
     0
102
RTVSPropertyOp12
 70
     0
102
RTVSPropertyOp13
 70
     0
102
RTVSPropertyOp14
 70
     2
102
RTVSPropertyOp15
 70
     0
102
RTVSPropertyOp16
 70
     0
102
RTVSPropertyOp17
 70
     0
102
RTVSPropertyOp18
 70
     0
102
RTVSPropertyOp19
 70
     0
102
RTVSPropertyOp20
 70
     0
102
RTVSPropertyOp21
 70
     0
102
RTVSPropertyOp22
 70
     0
102
RTVSPropertyOp23
 70
     0
102
RTVSPropertyOp24
 70
     0
102
RTVSPropertyOp25
 70
     0
102
RTVSPropertyOp26
 70
     0
102
RTVSPropertyOp27
 70
     0
102
RTVSPropertyOp28
 70
     1
102
RTVSPropertyOp29
 70
     1
102
RTVSPropertyOp30
 70
     1
102
RTVSPropertyOp31
 70
     1
102
RTVSPropertyOp32
 70
     1
102
RTVSPropertyOp33
 70
     1
102
RTVSPropertyOp34
 70
     1
102
RTVSPropertyOp35
 70
     1
102
RTVSPropertyOp36
 70
     1
102
RTVSPropertyOp37
 70
     0
102
RTVSPropertyOp38
 70
     0
102
RTVSPropertyOp39
 70
     0
102
RTVSPropertyOp40
 70
     0
102
RTVSPropertyOp41
 70
     0
102
RTVSPropertyOp42
 70
     0
102
RTVSPropertyOp43
 70
     0
102
RTVSPropertyOp44
 70
     0
102
RTVSPropertyOp45
 70
     1
102
RTVSPropertyOp46
 70
     0
102
RTVSPropertyOp47
 70
     0
102
RTVSPropertyOp48
 70
     0
102
RTVSPropertyOp49
 70
     1
102
RTVSPropertyOp50
 70
     0
102
RTVSPropertyOp51
 70
     0
102
RTVSPropertyOp52
 70
     0
102
RTVSPropertyOp53
 70
     0
102
RTVSPropertyOp54
 70
     0
102
RTVSPropertyOp55
 70
     1
102
RTVSPropertyOp56
 70
     0
102
RTVSPropertyOp57
 70
     0
102
RTVSPropertyOp58
 70
     0
102
RTVSPropertyOp59
 70
     0
102
RTVSPropertyOp60
 70
     0
102
RTVSPropertyOp61
 70
     0
102
RTVSPropertyOp62
 70
     0
  0
XRECORD
  5
9BF
102
{ACAD_REACTORS
330
9BE
102
}
330
9BE
100
AcDbXrecord
280
     1
102
RTVSPost2010Prop28
280
     0
102
RTVSPost2010PropOp28
 70
     1
102
RTVSPost2010Prop29
280
     1
102
RTVSPost2010PropOp29
 70
     1
102
RTVSPost2010Prop30
280
     1
102
RTVSPost2010PropOp30
 70
     1
102
RTVSPost2010Prop31
280
     0
102
RTVSPost2010PropOp31
 70
     1
102
RTVSPost2010Prop32
280
     0
102
RTVSPost2010PropOp32
 70
     1
102
RTVSPost2010Prop33
280
     0
102
RTVSPost2010PropOp33
 70
     1
102
RTVSPost2010Prop34
280
     0
102
RTVSPost2010PropOp34
 70
     1
102
RTVSPost2010Prop35
280
     0
102
RTVSPost2010PropOp35
 70
     1
102
RTVSPost2010Prop36
280
     0
102
RTVSPost2010PropOp36
 70
     1
102
RTVSPost2010Prop37
 90
       50
102
RTVSPost2010PropOp37
 70
     1
102
RTVSPost2010Prop38
140
0.0
102
RTVSPost2010PropOp38
 70
     1
102
RTVSPost2010Prop39
140
1.0
102
RTVSPost2010PropOp39
 70
     1
102
RTVSPost2010Prop40
 90
        0
102
RTVSPost2010PropOp40
 70
     1
102
RTVSPost2010Prop41ColorIndex
 90
       18
102
RTVSPost2010Prop41ColorRGB
 90
        0
102
RTVSPost2010PropOp41
 70
     1
102
RTVSPost2010Prop42
 90
       50
102
RTVSPost2010PropOp42
 70
     1
102
RTVSPost2010Prop43
 90
        3
102
RTVSPost2010PropOp43
 70
     1
102
RTVSPost2010Prop44ColorIndex
 90
        5
102
RTVSPost2010Prop44ColorRGB
 90
      255
102
RTVSPost2010PropOp44
 70
     1
102
RTVSPost2010Prop45
280
     0
102
RTVSPost2010PropOp45
 70
     1
102
RTVSPost2010Prop46
 90
       50
102
RTVSPost2010PropOp46
 70
     1
102
RTVSPost2010Prop47
 90
       50
102
RTVSPost2010PropOp47
 70
     1
102
RTVSPost2010Prop48
 90
       50
102
RTVSPost2010PropOp48
 70
     1
102
RTVSPost2010Prop49
280
     0
102
RTVSPost2010PropOp49
 70
     1
102
RTVSPost2010Prop50
 90
       50
102
RTVSPost2010PropOp50
 70
     1
102
RTVSPost2010Prop51ColorIndex
 90
      256
102
RTVSPost2010Prop51ColorRGB
 90
-16777216
102
RTVSPost2010PropOp51
 70
     0
102
RTVSPost2010Prop52
140
1.0
102
RTVSPost2010PropOp52
 70
     0
102
RTVSPost2010Prop53
 90
        2
102
RTVSPost2010PropOp53
 70
     1
102
RTVSPost2010Prop54
  1
strokes_ogs.tif
102
RTVSPost2010PropOp54
 70
     1
102
RTVSPost2010Prop55
280
     0
102
RTVSPost2010PropOp55
 70
     1
102
RTVSPost2010Prop56
140
1.0
102
RTVSPost2010PropOp56
 70
     1
102
RTVSPost2010Prop57
140
1.0
102
RTVSPost2010PropOp57
 70
     1
102
RTVSPropertyOp0
 70
     1
102
RTVSPropertyOp1
 70
     1
102
RTVSPropertyOp2
 70
     1
102
RTVSPropertyOp3
 70
     1
102
RTVSPropertyOp4
 70
     1
102
RTVSPropertyOp5
 70
     1
102
RTVSPropertyOp6
 70
     1
102
RTVSPropertyOp7
 70
     1
102
RTVSPropertyOp8
 70
     1
102
RTVSPropertyOp9
 70
     1
102
RTVSPropertyOp10
 70
     1
102
RTVSPropertyOp11
 70
     1
102
RTVSPropertyOp12
 70
     1
102
RTVSPropertyOp13
 70
     1
102
RTVSPropertyOp14
 70
     1
102
RTVSPropertyOp15
 70
     1
102
RTVSPropertyOp16
 70
     1
102
RTVSPropertyOp17
 70
     1
102
RTVSPropertyOp18
 70
     1
102
RTVSPropertyOp19
 70
     1
102
RTVSPropertyOp20
 70
     1
102
RTVSPropertyOp21
 70
     1
102
RTVSPropertyOp22
 70
     1
102
RTVSPropertyOp23
 70
     1
102
RTVSPropertyOp24
 70
     1
102
RTVSPropertyOp25
 70
     1
102
RTVSPropertyOp26
 70
     1
102
RTVSPropertyOp27
 70
     1
102
RTVSPropertyOp28
 70
     1
102
RTVSPropertyOp29
 70
     1
102
RTVSPropertyOp30
 70
     1
102
RTVSPropertyOp31
 70
     1
102
RTVSPropertyOp32
 70
     1
102
RTVSPropertyOp33
 70
     1
102
RTVSPropertyOp34
 70
     1
102
RTVSPropertyOp35
 70
     1
102
RTVSPropertyOp36
 70
     1
102
RTVSPropertyOp37
 70
     1
102
RTVSPropertyOp38
 70
     1
102
RTVSPropertyOp39
 70
     1
102
RTVSPropertyOp40
 70
     1
102
RTVSPropertyOp41
 70
     1
102
RTVSPropertyOp42
 70
     1
102
RTVSPropertyOp43
 70
     1
102
RTVSPropertyOp44
 70
     1
102
RTVSPropertyOp45
 70
     1
102
RTVSPropertyOp46
 70
     1
102
RTVSPropertyOp47
 70
     1
102
RTVSPropertyOp48
 70
     1
102
RTVSPropertyOp49
 70
     1
102
RTVSPropertyOp50
 70
     1
102
RTVSPropertyOp51
 70
     0
102
RTVSPropertyOp52
 70
     0
102
RTVSPropertyOp53
 70
     1
102
RTVSPropertyOp54
 70
     1
102
RTVSPropertyOp55
 70
     1
102
RTVSPropertyOp56
 70
     1
102
RTVSPropertyOp57
 70
     1
102
RTVSPropertyOp58
 70
     1
102
RTVSPropertyOp59
 70
     1
102
RTVSPropertyOp60
 70
     1
102
RTVSPropertyOp61
 70
     1
102
RTVSPropertyOp62
 70
     1
  0
XRECORD
  5
9D1
102
{ACAD_REACTORS
330
9D0
102
}
330
9D0
100
AcDbXrecord
280
     1
102
RTVSPost2010Prop28
280
     0
102
RTVSPost2010PropOp28
 70
     1
102
RTVSPost2010Prop29
280
     1
102
RTVSPost2010PropOp29
 70
     1
102
RTVSPost2010Prop30
280
     1
102
RTVSPost2010PropOp30
 70
     1
102
RTVSPost2010Prop31
280
     0
102
RTVSPost2010PropOp31
 70
     1
102
RTVSPost2010Prop32
280
     0
102
RTVSPost2010PropOp32
 70
     1
102
RTVSPost2010Prop33
280
     0
102
RTVSPost2010PropOp33
 70
     1
102
RTVSPost2010Prop34
280
     0
102
RTVSPost2010PropOp34
 70
     1
102
RTVSPost2010Prop35
280
     0
102
RTVSPost2010PropOp35
 70
     1
102
RTVSPost2010Prop36
280
     0
102
RTVSPost2010PropOp36
 70
     1
102
RTVSPost2010Prop37
 90
       50
102
RTVSPost2010PropOp37
 70
     0
102
RTVSPost2010Prop38
140
0.0
102
RTVSPost2010PropOp38
 70
     0
102
RTVSPost2010Prop39
140
1.0
102
RTVSPost2010PropOp39
 70
     0
102
RTVSPost2010Prop40
 90
        0
102
RTVSPost2010PropOp40
 70
     0
102
RTVSPost2010Prop41ColorIndex
 90
       18
102
RTVSPost2010Prop41ColorRGB
 90
        0
102
RTVSPost2010PropOp41
 70
     0
102
RTVSPost2010Prop42
 90
       50
102
RTVSPost2010PropOp42
 70
     0
102
RTVSPost2010Prop43
 90
        3
102
RTVSPost2010PropOp43
 70
     0
102
RTVSPost2010Prop44ColorIndex
 90
        5
102
RTVSPost2010Prop44ColorRGB
 90
      255
102
RTVSPost2010PropOp44
 70
     0
102
RTVSPost2010Prop45
280
     0
102
RTVSPost2010PropOp45
 70
     1
102
RTVSPost2010Prop46
 90
       50
102
RTVSPost2010PropOp46
 70
     0
102
RTVSPost2010Prop47
 90
       50
102
RTVSPost2010PropOp47
 70
     0
102
RTVSPost2010Prop48
 90
       50
102
RTVSPost2010PropOp48
 70
     0
102
RTVSPost2010Prop49
280
     0
102
RTVSPost2010PropOp49
 70
     1
102
RTVSPost2010Prop50
 90
       50
102
RTVSPost2010PropOp50
 70
     0
102
RTVSPost2010Prop51ColorIndex
 90
      256
102
RTVSPost2010Prop51ColorRGB
 90
-16777216
102
RTVSPost2010PropOp51
 70
     0
102
RTVSPost2010Prop52
140
1.0
102
RTVSPost2010PropOp52
 70
     0
102
RTVSPost2010Prop53
 90
        2
102
RTVSPost2010PropOp53
 70
     0
102
RTVSPost2010Prop54
  1
strokes_ogs.tif
102
RTVSPost2010PropOp54
 70
     0
102
RTVSPost2010Prop55
280
     0
102
RTVSPost2010PropOp55
 70
     1
102
RTVSPost2010Prop56
140
1.0
102
RTVSPost2010PropOp56
 70
     0
102
RTVSPost2010Prop57
140
1.0
102
RTVSPost2010PropOp57
 70
     0
102
RTVSPropertyOp0
 70
     0
102
RTVSPropertyOp1
 70
     0
102
RTVSPropertyOp2
 70
     0
102
RTVSPropertyOp3
 70
     0
102
RTVSPropertyOp4
 70
     0
102
RTVSPropertyOp5
 70
     0
102
RTVSPropertyOp6
 70
     0
102
RTVSPropertyOp7
 70
     0
102
RTVSPropertyOp8
 70
     0
102
RTVSPropertyOp9
 70
     0
102
RTVSPropertyOp10
 70
     0
102
RTVSPropertyOp11
 70
     0
102
RTVSPropertyOp12
 70
     0
102
RTVSPropertyOp13
 70
     0
102
RTVSPropertyOp14
 70
     2
102
RTVSPropertyOp15
 70
     0
102
RTVSPropertyOp16
 70
     0
102
RTVSPropertyOp17
 70
     0
102
RTVSPropertyOp18
 70
     0
102
RTVSPropertyOp19
 70
     0
102
RTVSPropertyOp20
 70
     0
102
RTVSPropertyOp21
 70
     0
102
RTVSPropertyOp22
 70
     0
102
RTVSPropertyOp23
 70
     0
102
RTVSPropertyOp24
 70
     0
102
RTVSPropertyOp25
 70
     0
102
RTVSPropertyOp26
 70
     0
102
RTVSPropertyOp27
 70
     0
102
RTVSPropertyOp28
 70
     1
102
RTVSPropertyOp29
 70
     1
102
RTVSPropertyOp30
 70
     1
102
RTVSPropertyOp31
 70
     1
102
RTVSPropertyOp32
 70
     1
102
RTVSPropertyOp33
 70
     1
102
RTVSPropertyOp34
 70
     1
102
RTVSPropertyOp35
 70
     1
102
RTVSPropertyOp36
 70
     1
102
RTVSPropertyOp37
 70
     0
102
RTVSPropertyOp38
 70
     0
102
RTVSPropertyOp39
 70
     0
102
RTVSPropertyOp40
 70
     0
102
RTVSPropertyOp41
 70
     0
102
RTVSPropertyOp42
 70
     0
102
RTVSPropertyOp43
 70
     0
102
RTVSPropertyOp44
 70
     0
102
RTVSPropertyOp45
 70
     1
102
RTVSPropertyOp46
 70
     0
102
RTVSPropertyOp47
 70
     0
102
RTVSPropertyOp48
 70
     0
102
RTVSPropertyOp49
 70
     1
102
RTVSPropertyOp50
 70
     0
102
RTVSPropertyOp51
 70
     0
102
RTVSPropertyOp52
 70
     0
102
RTVSPropertyOp53
 70
     0
102
RTVSPropertyOp54
 70
     0
102
RTVSPropertyOp55
 70
     1
102
RTVSPropertyOp56
 70
     0
102
RTVSPropertyOp57
 70
     0
102
RTVSPropertyOp58
 70
     0
102
RTVSPropertyOp59
 70
     0
102
RTVSPropertyOp60
 70
     0
102
RTVSPropertyOp61
 70
     0
102
RTVSPropertyOp62
 70
     0
  0
XRECORD
  5
9B7
102
{ACAD_REACTORS
330
9B6
102
}
330
9B6
100
AcDbXrecord
280
     1
102
RTVSPost2010Prop28
280
     0
102
RTVSPost2010PropOp28
 70
     1
102
RTVSPost2010Prop29
280
     1
102
RTVSPost2010PropOp29
 70
     1
102
RTVSPost2010Prop30
280
     1
102
RTVSPost2010PropOp30
 70
     1
102
RTVSPost2010Prop31
280
     0
102
RTVSPost2010PropOp31
 70
     1
102
RTVSPost2010Prop32
280
     0
102
RTVSPost2010PropOp32
 70
     1
102
RTVSPost2010Prop33
280
     0
102
RTVSPost2010PropOp33
 70
     1
102
RTVSPost2010Prop34
280
     0
102
RTVSPost2010PropOp34
 70
     1
102
RTVSPost2010Prop35
280
     0
102
RTVSPost2010PropOp35
 70
     1
102
RTVSPost2010Prop36
280
     0
102
RTVSPost2010PropOp36
 70
     1
102
RTVSPost2010Prop37
 90
       50
102
RTVSPost2010PropOp37
 70
     1
102
RTVSPost2010Prop38
140
0.0
102
RTVSPost2010PropOp38
 70
     1
102
RTVSPost2010Prop39
140
1.0
102
RTVSPost2010PropOp39
 70
     1
102
RTVSPost2010Prop40
 90
        0
102
RTVSPost2010PropOp40
 70
     1
102
RTVSPost2010Prop41ColorIndex
 90
       18
102
RTVSPost2010Prop41ColorRGB
 90
        0
102
RTVSPost2010PropOp41
 70
     1
102
RTVSPost2010Prop42
 90
       50
102
RTVSPost2010PropOp42
 70
     1
102
RTVSPost2010Prop43
 90
        3
102
RTVSPost2010PropOp43
 70
     1
102
RTVSPost2010Prop44ColorIndex
 90
        5
102
RTVSPost2010Prop44ColorRGB
 90
      255
102
RTVSPost2010PropOp44
 70
     1
102
RTVSPost2010Prop45
280
     0
102
RTVSPost2010PropOp45
 70
     1
102
RTVSPost2010Prop46
 90
       50
102
RTVSPost2010PropOp46
 70
     1
102
RTVSPost2010Prop47
 90
       50
102
RTVSPost2010PropOp47
 70
     1
102
RTVSPost2010Prop48
 90
       50
102
RTVSPost2010PropOp48
 70
     1
102
RTVSPost2010Prop49
280
     0
102
RTVSPost2010PropOp49
 70
     1
102
RTVSPost2010Prop50
 90
       50
102
RTVSPost2010PropOp50
 70
     1
102
RTVSPost2010Prop51ColorIndex
 90
      256
102
RTVSPost2010Prop51ColorRGB
 90
-16777216
102
RTVSPost2010PropOp51
 70
     0
102
RTVSPost2010Prop52
140
1.0
102
RTVSPost2010PropOp52
 70
     0
102
RTVSPost2010Prop53
 90
        2
102
RTVSPost2010PropOp53
 70
     1
102
RTVSPost2010Prop54
  1
strokes_ogs.tif
102
RTVSPost2010PropOp54
 70
     1
102
RTVSPost2010Prop55
280
     0
102
RTVSPost2010PropOp55
 70
     1
102
RTVSPost2010Prop56
140
1.0
102
RTVSPost2010PropOp56
 70
     1
102
RTVSPost2010Prop57
140
1.0
102
RTVSPost2010PropOp57
 70
     1
102
RTVSPropertyOp0
 70
     1
102
RTVSPropertyOp1
 70
     1
102
RTVSPropertyOp2
 70
     1
102
RTVSPropertyOp3
 70
     1
102
RTVSPropertyOp4
 70
     1
102
RTVSPropertyOp5
 70
     1
102
RTVSPropertyOp6
 70
     1
102
RTVSPropertyOp7
 70
     1
102
RTVSPropertyOp8
 70
     1
102
RTVSPropertyOp9
 70
     1
102
RTVSPropertyOp10
 70
     1
102
RTVSPropertyOp11
 70
     1
102
RTVSPropertyOp12
 70
     1
102
RTVSPropertyOp13
 70
     1
102
RTVSPropertyOp14
 70
     1
102
RTVSPropertyOp15
 70
     1
102
RTVSPropertyOp16
 70
     1
102
RTVSPropertyOp17
 70
     1
102
RTVSPropertyOp18
 70
     1
102
RTVSPropertyOp19
 70
     1
102
RTVSPropertyOp20
 70
     1
102
RTVSPropertyOp21
 70
     1
102
RTVSPropertyOp22
 70
     1
102
RTVSPropertyOp23
 70
     1
102
RTVSPropertyOp24
 70
     1
102
RTVSPropertyOp25
 70
     1
102
RTVSPropertyOp26
 70
     1
102
RTVSPropertyOp27
 70
     1
102
RTVSPropertyOp28
 70
     1
102
RTVSPropertyOp29
 70
     1
102
RTVSPropertyOp30
 70
     1
102
RTVSPropertyOp31
 70
     1
102
RTVSPropertyOp32
 70
     1
102
RTVSPropertyOp33
 70
     1
102
RTVSPropertyOp34
 70
     1
102
RTVSPropertyOp35
 70
     1
102
RTVSPropertyOp36
 70
     1
102
RTVSPropertyOp37
 70
     1
102
RTVSPropertyOp38
 70
     1
102
RTVSPropertyOp39
 70
     1
102
RTVSPropertyOp40
 70
     1
102
RTVSPropertyOp41
 70
     1
102
RTVSPropertyOp42
 70
     1
102
RTVSPropertyOp43
 70
     1
102
RTVSPropertyOp44
 70
     1
102
RTVSPropertyOp45
 70
     1
102
RTVSPropertyOp46
 70
     1
102
RTVSPropertyOp47
 70
     1
102
RTVSPropertyOp48
 70
     1
102
RTVSPropertyOp49
 70
     1
102
RTVSPropertyOp50
 70
     1
102
RTVSPropertyOp51
 70
     0
102
RTVSPropertyOp52
 70
     0
102
RTVSPropertyOp53
 70
     1
102
RTVSPropertyOp54
 70
     1
102
RTVSPropertyOp55
 70
     1
102
RTVSPropertyOp56
 70
     1
102
RTVSPropertyOp57
 70
     1
102
RTVSPropertyOp58
 70
     1
102
RTVSPropertyOp59
 70
     1
102
RTVSPropertyOp60
 70
     1
102
RTVSPropertyOp61
 70
     1
102
RTVSPropertyOp62
 70
     1
  0
XRECORD
  5
9CD
102
{ACAD_REACTORS
330
9CC
102
}
330
9CC
100
AcDbXrecord
280
     1
102
RTVSPost2010Prop28
280
     0
102
RTVSPost2010PropOp28
 70
     1
102
RTVSPost2010Prop29
280
     1
102
RTVSPost2010PropOp29
 70
     1
102
RTVSPost2010Prop30
280
     1
102
RTVSPost2010PropOp30
 70
     1
102
RTVSPost2010Prop31
280
     0
102
RTVSPost2010PropOp31
 70
     1
102
RTVSPost2010Prop32
280
     0
102
RTVSPost2010PropOp32
 70
     1
102
RTVSPost2010Prop33
280
     0
102
RTVSPost2010PropOp33
 70
     1
102
RTVSPost2010Prop34
280
     0
102
RTVSPost2010PropOp34
 70
     1
102
RTVSPost2010Prop35
280
     0
102
RTVSPost2010PropOp35
 70
     1
102
RTVSPost2010Prop36
280
     0
102
RTVSPost2010PropOp36
 70
     1
102
RTVSPost2010Prop37
 90
       50
102
RTVSPost2010PropOp37
 70
     1
102
RTVSPost2010Prop38
140
0.0
102
RTVSPost2010PropOp38
 70
     1
102
RTVSPost2010Prop39
140
1.0
102
RTVSPost2010PropOp39
 70
     1
102
RTVSPost2010Prop40
 90
        0
102
RTVSPost2010PropOp40
 70
     1
102
RTVSPost2010Prop41ColorIndex
 90
       18
102
RTVSPost2010Prop41ColorRGB
 90
        0
102
RTVSPost2010PropOp41
 70
     1
102
RTVSPost2010Prop42
 90
       50
102
RTVSPost2010PropOp42
 70
     1
102
RTVSPost2010Prop43
 90
        3
102
RTVSPost2010PropOp43
 70
     1
102
RTVSPost2010Prop44ColorIndex
 90
        5
102
RTVSPost2010Prop44ColorRGB
 90
      255
102
RTVSPost2010PropOp44
 70
     1
102
RTVSPost2010Prop45
280
     0
102
RTVSPost2010PropOp45
 70
     1
102
RTVSPost2010Prop46
 90
       50
102
RTVSPost2010PropOp46
 70
     1
102
RTVSPost2010Prop47
 90
       50
102
RTVSPost2010PropOp47
 70
     1
102
RTVSPost2010Prop48
 90
       50
102
RTVSPost2010PropOp48
 70
     1
102
RTVSPost2010Prop49
280
     0
102
RTVSPost2010PropOp49
 70
     1
102
RTVSPost2010Prop50
 90
       50
102
RTVSPost2010PropOp50
 70
     1
102
RTVSPost2010Prop51ColorIndex
 90
      256
102
RTVSPost2010Prop51ColorRGB
 90
-16777216
102
RTVSPost2010PropOp51
 70
     0
102
RTVSPost2010Prop52
140
1.0
102
RTVSPost2010PropOp52
 70
     0
102
RTVSPost2010Prop53
 90
        2
102
RTVSPost2010PropOp53
 70
     1
102
RTVSPost2010Prop54
  1
strokes_ogs.tif
102
RTVSPost2010PropOp54
 70
     1
102
RTVSPost2010Prop55
280
     0
102
RTVSPost2010PropOp55
 70
     1
102
RTVSPost2010Prop56
140
1.0
102
RTVSPost2010PropOp56
 70
     1
102
RTVSPost2010Prop57
140
1.0
102
RTVSPost2010PropOp57
 70
     1
102
RTVSPropertyOp0
 70
     1
102
RTVSPropertyOp1
 70
     1
102
RTVSPropertyOp2
 70
     1
102
RTVSPropertyOp3
 70
     1
102
RTVSPropertyOp4
 70
     1
102
RTVSPropertyOp5
 70
     1
102
RTVSPropertyOp6
 70
     1
102
RTVSPropertyOp7
 70
     1
102
RTVSPropertyOp8
 70
     1
102
RTVSPropertyOp9
 70
     1
102
RTVSPropertyOp10
 70
     1
102
RTVSPropertyOp11
 70
     1
102
RTVSPropertyOp12
 70
     1
102
RTVSPropertyOp13
 70
     1
102
RTVSPropertyOp14
 70
     1
102
RTVSPropertyOp15
 70
     1
102
RTVSPropertyOp16
 70
     1
102
RTVSPropertyOp17
 70
     1
102
RTVSPropertyOp18
 70
     1
102
RTVSPropertyOp19
 70
     1
102
RTVSPropertyOp20
 70
     1
102
RTVSPropertyOp21
 70
     1
102
RTVSPropertyOp22
 70
     1
102
RTVSPropertyOp23
 70
     1
102
RTVSPropertyOp24
 70
     1
102
RTVSPropertyOp25
 70
     1
102
RTVSPropertyOp26
 70
     1
102
RTVSPropertyOp27
 70
     1
102
RTVSPropertyOp28
 70
     1
102
RTVSPropertyOp29
 70
     1
102
RTVSPropertyOp30
 70
     1
102
RTVSPropertyOp31
 70
     1
102
RTVSPropertyOp32
 70
     1
102
RTVSPropertyOp33
 70
     1
102
RTVSPropertyOp34
 70
     1
102
RTVSPropertyOp35
 70
     1
102
RTVSPropertyOp36
 70
     1
102
RTVSPropertyOp37
 70
     1
102
RTVSPropertyOp38
 70
     1
102
RTVSPropertyOp39
 70
     1
102
RTVSPropertyOp40
 70
     1
102
RTVSPropertyOp41
 70
     1
102
RTVSPropertyOp42
 70
     1
102
RTVSPropertyOp43
 70
     1
102
RTVSPropertyOp44
 70
     1
102
RTVSPropertyOp45
 70
     1
102
RTVSPropertyOp46
 70
     1
102
RTVSPropertyOp47
 70
     1
102
RTVSPropertyOp48
 70
     1
102
RTVSPropertyOp49
 70
     1
102
RTVSPropertyOp50
 70
     1
102
RTVSPropertyOp51
 70
     0
102
RTVSPropertyOp52
 70
     0
102
RTVSPropertyOp53
 70
     1
102
RTVSPropertyOp54
 70
     1
102
RTVSPropertyOp55
 70
     1
102
RTVSPropertyOp56
 70
     1
102
RTVSPropertyOp57
 70
     1
102
RTVSPropertyOp58
 70
     1
102
RTVSPropertyOp59
 70
     1
102
RTVSPropertyOp60
 70
     1
102
RTVSPropertyOp61
 70
     1
102
RTVSPropertyOp62
 70
     1
  0
XRECORD
  5
9CB
102
{ACAD_REACTORS
330
9CA
102
}
330
9CA
100
AcDbXrecord
280
     1
102
RTVSPost2010Prop28
280
     0
102
RTVSPost2010PropOp28
 70
     1
102
RTVSPost2010Prop29
280
     1
102
RTVSPost2010PropOp29
 70
     1
102
RTVSPost2010Prop30
280
     1
102
RTVSPost2010PropOp30
 70
     1
102
RTVSPost2010Prop31
280
     0
102
RTVSPost2010PropOp31
 70
     1
102
RTVSPost2010Prop32
280
     0
102
RTVSPost2010PropOp32
 70
     1
102
RTVSPost2010Prop33
280
     0
102
RTVSPost2010PropOp33
 70
     1
102
RTVSPost2010Prop34
280
     0
102
RTVSPost2010PropOp34
 70
     1
102
RTVSPost2010Prop35
280
     0
102
RTVSPost2010PropOp35
 70
     1
102
RTVSPost2010Prop36
280
     0
102
RTVSPost2010PropOp36
 70
     1
102
RTVSPost2010Prop37
 90
       50
102
RTVSPost2010PropOp37
 70
     1
102
RTVSPost2010Prop38
140
0.0
102
RTVSPost2010PropOp38
 70
     1
102
RTVSPost2010Prop39
140
1.0
102
RTVSPost2010PropOp39
 70
     1
102
RTVSPost2010Prop40
 90
        0
102
RTVSPost2010PropOp40
 70
     1
102
RTVSPost2010Prop41ColorIndex
 90
       18
102
RTVSPost2010Prop41ColorRGB
 90
        0
102
RTVSPost2010PropOp41
 70
     1
102
RTVSPost2010Prop42
 90
       50
102
RTVSPost2010PropOp42
 70
     1
102
RTVSPost2010Prop43
 90
        3
102
RTVSPost2010PropOp43
 70
     1
102
RTVSPost2010Prop44ColorIndex
 90
        5
102
RTVSPost2010Prop44ColorRGB
 90
      255
102
RTVSPost2010PropOp44
 70
     1
102
RTVSPost2010Prop45
280
     0
102
RTVSPost2010PropOp45
 70
     1
102
RTVSPost2010Prop46
 90
       50
102
RTVSPost2010PropOp46
 70
     1
102
RTVSPost2010Prop47
 90
       50
102
RTVSPost2010PropOp47
 70
     1
102
RTVSPost2010Prop48
 90
       50
102
RTVSPost2010PropOp48
 70
     1
102
RTVSPost2010Prop49
280
     0
102
RTVSPost2010PropOp49
 70
     1
102
RTVSPost2010Prop50
 90
       50
102
RTVSPost2010PropOp50
 70
     1
102
RTVSPost2010Prop51ColorIndex
 90
      256
102
RTVSPost2010Prop51ColorRGB
 90
-16777216
102
RTVSPost2010PropOp51
 70
     0
102
RTVSPost2010Prop52
140
1.0
102
RTVSPost2010PropOp52
 70
     0
102
RTVSPost2010Prop53
 90
        2
102
RTVSPost2010PropOp53
 70
     1
102
RTVSPost2010Prop54
  1
strokes_ogs.tif
102
RTVSPost2010PropOp54
 70
     1
102
RTVSPost2010Prop55
280
     0
102
RTVSPost2010PropOp55
 70
     1
102
RTVSPost2010Prop56
140
1.0
102
RTVSPost2010PropOp56
 70
     1
102
RTVSPost2010Prop57
140
1.0
102
RTVSPost2010PropOp57
 70
     1
102
RTVSPropertyOp0
 70
     1
102
RTVSPropertyOp1
 70
     1
102
RTVSPropertyOp2
 70
     1
102
RTVSPropertyOp3
 70
     1
102
RTVSPropertyOp4
 70
     1
102
RTVSPropertyOp5
 70
     1
102
RTVSPropertyOp6
 70
     1
102
RTVSPropertyOp7
 70
     1
102
RTVSPropertyOp8
 70
     1
102
RTVSPropertyOp9
 70
     1
102
RTVSPropertyOp10
 70
     1
102
RTVSPropertyOp11
 70
     1
102
RTVSPropertyOp12
 70
     1
102
RTVSPropertyOp13
 70
     1
102
RTVSPropertyOp14
 70
     1
102
RTVSPropertyOp15
 70
     1
102
RTVSPropertyOp16
 70
     1
102
RTVSPropertyOp17
 70
     1
102
RTVSPropertyOp18
 70
     1
102
RTVSPropertyOp19
 70
     1
102
RTVSPropertyOp20
 70
     1
102
RTVSPropertyOp21
 70
     1
102
RTVSPropertyOp22
 70
     1
102
RTVSPropertyOp23
 70
     1
102
RTVSPropertyOp24
 70
     1
102
RTVSPropertyOp25
 70
     1
102
RTVSPropertyOp26
 70
     1
102
RTVSPropertyOp27
 70
     1
102
RTVSPropertyOp28
 70
     1
102
RTVSPropertyOp29
 70
     1
102
RTVSPropertyOp30
 70
     1
102
RTVSPropertyOp31
 70
     1
102
RTVSPropertyOp32
 70
     1
102
RTVSPropertyOp33
 70
     1
102
RTVSPropertyOp34
 70
     1
102
RTVSPropertyOp35
 70
     1
102
RTVSPropertyOp36
 70
     1
102
RTVSPropertyOp37
 70
     1
102
RTVSPropertyOp38
 70
     1
102
RTVSPropertyOp39
 70
     1
102
RTVSPropertyOp40
 70
     1
102
RTVSPropertyOp41
 70
     1
102
RTVSPropertyOp42
 70
     1
102
RTVSPropertyOp43
 70
     1
102
RTVSPropertyOp44
 70
     1
102
RTVSPropertyOp45
 70
     1
102
RTVSPropertyOp46
 70
     1
102
RTVSPropertyOp47
 70
     1
102
RTVSPropertyOp48
 70
     1
102
RTVSPropertyOp49
 70
     1
102
RTVSPropertyOp50
 70
     1
102
RTVSPropertyOp51
 70
     0
102
RTVSPropertyOp52
 70
     0
102
RTVSPropertyOp53
 70
     1
102
RTVSPropertyOp54
 70
     1
102
RTVSPropertyOp55
 70
     1
102
RTVSPropertyOp56
 70
     1
102
RTVSPropertyOp57
 70
     1
102
RTVSPropertyOp58
 70
     1
102
RTVSPropertyOp59
 70
     1
102
RTVSPropertyOp60
 70
     1
102
RTVSPropertyOp61
 70
     1
102
RTVSPropertyOp62
 70
     1
  0
XRECORD
  5
9C5
102
{ACAD_REACTORS
330
9C4
102
}
330
9C4
100
AcDbXrecord
280
     1
102
RTVSPost2010Prop28
280
     0
102
RTVSPost2010PropOp28
 70
     1
102
RTVSPost2010Prop29
280
     1
102
RTVSPost2010PropOp29
 70
     1
102
RTVSPost2010Prop30
280
     1
102
RTVSPost2010PropOp30
 70
     1
102
RTVSPost2010Prop31
280
     0
102
RTVSPost2010PropOp31
 70
     1
102
RTVSPost2010Prop32
280
     0
102
RTVSPost2010PropOp32
 70
     1
102
RTVSPost2010Prop33
280
     0
102
RTVSPost2010PropOp33
 70
     1
102
RTVSPost2010Prop34
280
     0
102
RTVSPost2010PropOp34
 70
     1
102
RTVSPost2010Prop35
280
     0
102
RTVSPost2010PropOp35
 70
     1
102
RTVSPost2010Prop36
280
     0
102
RTVSPost2010PropOp36
 70
     1
102
RTVSPost2010Prop37
 90
       50
102
RTVSPost2010PropOp37
 70
     1
102
RTVSPost2010Prop38
140
0.0
102
RTVSPost2010PropOp38
 70
     1
102
RTVSPost2010Prop39
140
1.0
102
RTVSPost2010PropOp39
 70
     1
102
RTVSPost2010Prop40
 90
        0
102
RTVSPost2010PropOp40
 70
     1
102
RTVSPost2010Prop41ColorIndex
 90
       18
102
RTVSPost2010Prop41ColorRGB
 90
        0
102
RTVSPost2010PropOp41
 70
     1
102
RTVSPost2010Prop42
 90
       50
102
RTVSPost2010PropOp42
 70
     1
102
RTVSPost2010Prop43
 90
        3
102
RTVSPost2010PropOp43
 70
     1
102
RTVSPost2010Prop44ColorIndex
 90
        5
102
RTVSPost2010Prop44ColorRGB
 90
      255
102
RTVSPost2010PropOp44
 70
     1
102
RTVSPost2010Prop45
280
     0
102
RTVSPost2010PropOp45
 70
     1
102
RTVSPost2010Prop46
 90
       50
102
RTVSPost2010PropOp46
 70
     1
102
RTVSPost2010Prop47
 90
       50
102
RTVSPost2010PropOp47
 70
     1
102
RTVSPost2010Prop48
 90
       50
102
RTVSPost2010PropOp48
 70
     1
102
RTVSPost2010Prop49
280
     0
102
RTVSPost2010PropOp49
 70
     1
102
RTVSPost2010Prop50
 90
       50
102
RTVSPost2010PropOp50
 70
     1
102
RTVSPost2010Prop51ColorIndex
 90
      256
102
RTVSPost2010Prop51ColorRGB
 90
-16777216
102
RTVSPost2010PropOp51
 70
     0
102
RTVSPost2010Prop52
140
1.0
102
RTVSPost2010PropOp52
 70
     0
102
RTVSPost2010Prop53
 90
        2
102
RTVSPost2010PropOp53
 70
     1
102
RTVSPost2010Prop54
  1
strokes_ogs.tif
102
RTVSPost2010PropOp54
 70
     1
102
RTVSPost2010Prop55
280
     0
102
RTVSPost2010PropOp55
 70
     1
102
RTVSPost2010Prop56
140
1.0
102
RTVSPost2010PropOp56
 70
     1
102
RTVSPost2010Prop57
140
1.0
102
RTVSPost2010PropOp57
 70
     1
102
RTVSPropertyOp0
 70
     1
102
RTVSPropertyOp1
 70
     1
102
RTVSPropertyOp2
 70
     1
102
RTVSPropertyOp3
 70
     1
102
RTVSPropertyOp4
 70
     1
102
RTVSPropertyOp5
 70
     1
102
RTVSPropertyOp6
 70
     1
102
RTVSPropertyOp7
 70
     1
102
RTVSPropertyOp8
 70
     1
102
RTVSPropertyOp9
 70
     1
102
RTVSPropertyOp10
 70
     1
102
RTVSPropertyOp11
 70
     1
102
RTVSPropertyOp12
 70
     1
102
RTVSPropertyOp13
 70
     1
102
RTVSPropertyOp14
 70
     1
102
RTVSPropertyOp15
 70
     1
102
RTVSPropertyOp16
 70
     1
102
RTVSPropertyOp17
 70
     1
102
RTVSPropertyOp18
 70
     1
102
RTVSPropertyOp19
 70
     1
102
RTVSPropertyOp20
 70
     1
102
RTVSPropertyOp21
 70
     1
102
RTVSPropertyOp22
 70
     1
102
RTVSPropertyOp23
 70
     1
102
RTVSPropertyOp24
 70
     1
102
RTVSPropertyOp25
 70
     1
102
RTVSPropertyOp26
 70
     1
102
RTVSPropertyOp27
 70
     1
102
RTVSPropertyOp28
 70
     1
102
RTVSPropertyOp29
 70
     1
102
RTVSPropertyOp30
 70
     1
102
RTVSPropertyOp31
 70
     1
102
RTVSPropertyOp32
 70
     1
102
RTVSPropertyOp33
 70
     1
102
RTVSPropertyOp34
 70
     1
102
RTVSPropertyOp35
 70
     1
102
RTVSPropertyOp36
 70
     1
102
RTVSPropertyOp37
 70
     1
102
RTVSPropertyOp38
 70
     1
102
RTVSPropertyOp39
 70
     1
102
RTVSPropertyOp40
 70
     1
102
RTVSPropertyOp41
 70
     1
102
RTVSPropertyOp42
 70
     1
102
RTVSPropertyOp43
 70
     1
102
RTVSPropertyOp44
 70
     1
102
RTVSPropertyOp45
 70
     1
102
RTVSPropertyOp46
 70
     1
102
RTVSPropertyOp47
 70
     1
102
RTVSPropertyOp48
 70
     1
102
RTVSPropertyOp49
 70
     1
102
RTVSPropertyOp50
 70
     1
102
RTVSPropertyOp51
 70
     0
102
RTVSPropertyOp52
 70
     0
102
RTVSPropertyOp53
 70
     1
102
RTVSPropertyOp54
 70
     1
102
RTVSPropertyOp55
 70
     1
102
RTVSPropertyOp56
 70
     1
102
RTVSPropertyOp57
 70
     1
102
RTVSPropertyOp58
 70
     1
102
RTVSPropertyOp59
 70
     1
102
RTVSPropertyOp60
 70
     1
102
RTVSPropertyOp61
 70
     1
102
RTVSPropertyOp62
 70
     1
  0
XRECORD
  5
9C7
102
{ACAD_REACTORS
330
9C6
102
}
330
9C6
100
AcDbXrecord
280
     1
102
RTVSPost2010Prop28
280
     0
102
RTVSPost2010PropOp28
 70
     1
102
RTVSPost2010Prop29
280
     1
102
RTVSPost2010PropOp29
 70
     1
102
RTVSPost2010Prop30
280
     1
102
RTVSPost2010PropOp30
 70
     1
102
RTVSPost2010Prop31
280
     0
102
RTVSPost2010PropOp31
 70
     1
102
RTVSPost2010Prop32
280
     0
102
RTVSPost2010PropOp32
 70
     1
102
RTVSPost2010Prop33
280
     0
102
RTVSPost2010PropOp33
 70
     1
102
RTVSPost2010Prop34
280
     0
102
RTVSPost2010PropOp34
 70
     1
102
RTVSPost2010Prop35
280
     0
102
RTVSPost2010PropOp35
 70
     1
102
RTVSPost2010Prop36
280
     0
102
RTVSPost2010PropOp36
 70
     1
102
RTVSPost2010Prop37
 90
       50
102
RTVSPost2010PropOp37
 70
     1
102
RTVSPost2010Prop38
140
0.0
102
RTVSPost2010PropOp38
 70
     1
102
RTVSPost2010Prop39
140
1.0
102
RTVSPost2010PropOp39
 70
     1
102
RTVSPost2010Prop40
 90
        0
102
RTVSPost2010PropOp40
 70
     1
102
RTVSPost2010Prop41ColorIndex
 90
       18
102
RTVSPost2010Prop41ColorRGB
 90
        0
102
RTVSPost2010PropOp41
 70
     1
102
RTVSPost2010Prop42
 90
       50
102
RTVSPost2010PropOp42
 70
     1
102
RTVSPost2010Prop43
 90
        3
102
RTVSPost2010PropOp43
 70
     1
102
RTVSPost2010Prop44ColorIndex
 90
        5
102
RTVSPost2010Prop44ColorRGB
 90
      255
102
RTVSPost2010PropOp44
 70
     1
102
RTVSPost2010Prop45
280
     0
102
RTVSPost2010PropOp45
 70
     1
102
RTVSPost2010Prop46
 90
       50
102
RTVSPost2010PropOp46
 70
     1
102
RTVSPost2010Prop47
 90
       50
102
RTVSPost2010PropOp47
 70
     1
102
RTVSPost2010Prop48
 90
       50
102
RTVSPost2010PropOp48
 70
     1
102
RTVSPost2010Prop49
280
     0
102
RTVSPost2010PropOp49
 70
     1
102
RTVSPost2010Prop50
 90
       50
102
RTVSPost2010PropOp50
 70
     1
102
RTVSPost2010Prop51ColorIndex
 90
      256
102
RTVSPost2010Prop51ColorRGB
 90
-16777216
102
RTVSPost2010PropOp51
 70
     0
102
RTVSPost2010Prop52
140
1.0
102
RTVSPost2010PropOp52
 70
     0
102
RTVSPost2010Prop53
 90
        2
102
RTVSPost2010PropOp53
 70
     1
102
RTVSPost2010Prop54
  1
strokes_ogs.tif
102
RTVSPost2010PropOp54
 70
     1
102
RTVSPost2010Prop55
280
     0
102
RTVSPost2010PropOp55
 70
     1
102
RTVSPost2010Prop56
140
1.0
102
RTVSPost2010PropOp56
 70
     1
102
RTVSPost2010Prop57
140
1.0
102
RTVSPost2010PropOp57
 70
     1
102
RTVSPropertyOp0
 70
     1
102
RTVSPropertyOp1
 70
     1
102
RTVSPropertyOp2
 70
     1
102
RTVSPropertyOp3
 70
     1
102
RTVSPropertyOp4
 70
     1
102
RTVSPropertyOp5
 70
     1
102
RTVSPropertyOp6
 70
     1
102
RTVSPropertyOp7
 70
     1
102
RTVSPropertyOp8
 70
     1
102
RTVSPropertyOp9
 70
     1
102
RTVSPropertyOp10
 70
     1
102
RTVSPropertyOp11
 70
     1
102
RTVSPropertyOp12
 70
     1
102
RTVSPropertyOp13
 70
     1
102
RTVSPropertyOp14
 70
     1
102
RTVSPropertyOp15
 70
     1
102
RTVSPropertyOp16
 70
     1
102
RTVSPropertyOp17
 70
     1
102
RTVSPropertyOp18
 70
     1
102
RTVSPropertyOp19
 70
     1
102
RTVSPropertyOp20
 70
     1
102
RTVSPropertyOp21
 70
     1
102
RTVSPropertyOp22
 70
     1
102
RTVSPropertyOp23
 70
     1
102
RTVSPropertyOp24
 70
     1
102
RTVSPropertyOp25
 70
     1
102
RTVSPropertyOp26
 70
     1
102
RTVSPropertyOp27
 70
     1
102
RTVSPropertyOp28
 70
     1
102
RTVSPropertyOp29
 70
     1
102
RTVSPropertyOp30
 70
     1
102
RTVSPropertyOp31
 70
     1
102
RTVSPropertyOp32
 70
     1
102
RTVSPropertyOp33
 70
     1
102
RTVSPropertyOp34
 70
     1
102
RTVSPropertyOp35
 70
     1
102
RTVSPropertyOp36
 70
     1
102
RTVSPropertyOp37
 70
     1
102
RTVSPropertyOp38
 70
     1
102
RTVSPropertyOp39
 70
     1
102
RTVSPropertyOp40
 70
     1
102
RTVSPropertyOp41
 70
     1
102
RTVSPropertyOp42
 70
     1
102
RTVSPropertyOp43
 70
     1
102
RTVSPropertyOp44
 70
     1
102
RTVSPropertyOp45
 70
     1
102
RTVSPropertyOp46
 70
     1
102
RTVSPropertyOp47
 70
     1
102
RTVSPropertyOp48
 70
     1
102
RTVSPropertyOp49
 70
     1
102
RTVSPropertyOp50
 70
     1
102
RTVSPropertyOp51
 70
     0
102
RTVSPropertyOp52
 70
     0
102
RTVSPropertyOp53
 70
     1
102
RTVSPropertyOp54
 70
     1
102
RTVSPropertyOp55
 70
     1
102
RTVSPropertyOp56
 70
     1
102
RTVSPropertyOp57
 70
     1
102
RTVSPropertyOp58
 70
     1
102
RTVSPropertyOp59
 70
     1
102
RTVSPropertyOp60
 70
     1
102
RTVSPropertyOp61
 70
     1
102
RTVSPropertyOp62
 70
     1
  0
XRECORD
  5
9BD
102
{ACAD_REACTORS
330
9BC
102
}
330
9BC
100
AcDbXrecord
280
     1
102
RTVSPost2010Prop28
280
     0
102
RTVSPost2010PropOp28
 70
     1
102
RTVSPost2010Prop29
280
     1
102
RTVSPost2010PropOp29
 70
     1
102
RTVSPost2010Prop30
280
     1
102
RTVSPost2010PropOp30
 70
     1
102
RTVSPost2010Prop31
280
     0
102
RTVSPost2010PropOp31
 70
     1
102
RTVSPost2010Prop32
280
     0
102
RTVSPost2010PropOp32
 70
     1
102
RTVSPost2010Prop33
280
     0
102
RTVSPost2010PropOp33
 70
     1
102
RTVSPost2010Prop34
280
     0
102
RTVSPost2010PropOp34
 70
     1
102
RTVSPost2010Prop35
280
     0
102
RTVSPost2010PropOp35
 70
     1
102
RTVSPost2010Prop36
280
     0
102
RTVSPost2010PropOp36
 70
     1
102
RTVSPost2010Prop37
 90
       50
102
RTVSPost2010PropOp37
 70
     1
102
RTVSPost2010Prop38
140
0.0
102
RTVSPost2010PropOp38
 70
     1
102
RTVSPost2010Prop39
140
1.0
102
RTVSPost2010PropOp39
 70
     1
102
RTVSPost2010Prop40
 90
        0
102
RTVSPost2010PropOp40
 70
     1
102
RTVSPost2010Prop41ColorIndex
 90
       18
102
RTVSPost2010Prop41ColorRGB
 90
        0
102
RTVSPost2010PropOp41
 70
     1
102
RTVSPost2010Prop42
 90
       50
102
RTVSPost2010PropOp42
 70
     1
102
RTVSPost2010Prop43
 90
        3
102
RTVSPost2010PropOp43
 70
     1
102
RTVSPost2010Prop44ColorIndex
 90
        5
102
RTVSPost2010Prop44ColorRGB
 90
      255
102
RTVSPost2010PropOp44
 70
     1
102
RTVSPost2010Prop45
280
     0
102
RTVSPost2010PropOp45
 70
     1
102
RTVSPost2010Prop46
 90
       50
102
RTVSPost2010PropOp46
 70
     1
102
RTVSPost2010Prop47
 90
       50
102
RTVSPost2010PropOp47
 70
     1
102
RTVSPost2010Prop48
 90
       50
102
RTVSPost2010PropOp48
 70
     1
102
RTVSPost2010Prop49
280
     0
102
RTVSPost2010PropOp49
 70
     1
102
RTVSPost2010Prop50
 90
       50
102
RTVSPost2010PropOp50
 70
     1
102
RTVSPost2010Prop51ColorIndex
 90
      256
102
RTVSPost2010Prop51ColorRGB
 90
-16777216
102
RTVSPost2010PropOp51
 70
     0
102
RTVSPost2010Prop52
140
1.0
102
RTVSPost2010PropOp52
 70
     0
102
RTVSPost2010Prop53
 90
        2
102
RTVSPost2010PropOp53
 70
     1
102
RTVSPost2010Prop54
  1
strokes_ogs.tif
102
RTVSPost2010PropOp54
 70
     1
102
RTVSPost2010Prop55
280
     0
102
RTVSPost2010PropOp55
 70
     1
102
RTVSPost2010Prop56
140
1.0
102
RTVSPost2010PropOp56
 70
     1
102
RTVSPost2010Prop57
140
1.0
102
RTVSPost2010PropOp57
 70
     1
102
RTVSPropertyOp0
 70
     1
102
RTVSPropertyOp1
 70
     1
102
RTVSPropertyOp2
 70
     1
102
RTVSPropertyOp3
 70
     1
102
RTVSPropertyOp4
 70
     1
102
RTVSPropertyOp5
 70
     1
102
RTVSPropertyOp6
 70
     1
102
RTVSPropertyOp7
 70
     1
102
RTVSPropertyOp8
 70
     1
102
RTVSPropertyOp9
 70
     1
102
RTVSPropertyOp10
 70
     1
102
RTVSPropertyOp11
 70
     1
102
RTVSPropertyOp12
 70
     1
102
RTVSPropertyOp13
 70
     1
102
RTVSPropertyOp14
 70
     1
102
RTVSPropertyOp15
 70
     1
102
RTVSPropertyOp16
 70
     1
102
RTVSPropertyOp17
 70
     1
102
RTVSPropertyOp18
 70
     1
102
RTVSPropertyOp19
 70
     1
102
RTVSPropertyOp20
 70
     1
102
RTVSPropertyOp21
 70
     1
102
RTVSPropertyOp22
 70
     1
102
RTVSPropertyOp23
 70
     1
102
RTVSPropertyOp24
 70
     1
102
RTVSPropertyOp25
 70
     1
102
RTVSPropertyOp26
 70
     1
102
RTVSPropertyOp27
 70
     1
102
RTVSPropertyOp28
 70
     1
102
RTVSPropertyOp29
 70
     1
102
RTVSPropertyOp30
 70
     1
102
RTVSPropertyOp31
 70
     1
102
RTVSPropertyOp32
 70
     1
102
RTVSPropertyOp33
 70
     1
102
RTVSPropertyOp34
 70
     1
102
RTVSPropertyOp35
 70
     1
102
RTVSPropertyOp36
 70
     1
102
RTVSPropertyOp37
 70
     1
102
RTVSPropertyOp38
 70
     1
102
RTVSPropertyOp39
 70
     1
102
RTVSPropertyOp40
 70
     1
102
RTVSPropertyOp41
 70
     1
102
RTVSPropertyOp42
 70
     1
102
RTVSPropertyOp43
 70
     1
102
RTVSPropertyOp44
 70
     1
102
RTVSPropertyOp45
 70
     1
102
RTVSPropertyOp46
 70
     1
102
RTVSPropertyOp47
 70
     1
102
RTVSPropertyOp48
 70
     1
102
RTVSPropertyOp49
 70
     1
102
RTVSPropertyOp50
 70
     1
102
RTVSPropertyOp51
 70
     0
102
RTVSPropertyOp52
 70
     0
102
RTVSPropertyOp53
 70
     1
102
RTVSPropertyOp54
 70
     1
102
RTVSPropertyOp55
 70
     1
102
RTVSPropertyOp56
 70
     1
102
RTVSPropertyOp57
 70
     1
102
RTVSPropertyOp58
 70
     1
102
RTVSPropertyOp59
 70
     1
102
RTVSPropertyOp60
 70
     1
102
RTVSPropertyOp61
 70
     1
102
RTVSPropertyOp62
 70
     1
  0
XRECORD
  5
9B1
102
{ACAD_REACTORS
330
9B0
102
}
330
9B0
100
AcDbXrecord
280
     1
102
RTVSPost2010Prop28
280
     0
102
RTVSPost2010PropOp28
 70
     1
102
RTVSPost2010Prop29
280
     1
102
RTVSPost2010PropOp29
 70
     1
102
RTVSPost2010Prop30
280
     1
102
RTVSPost2010PropOp30
 70
     1
102
RTVSPost2010Prop31
280
     0
102
RTVSPost2010PropOp31
 70
     1
102
RTVSPost2010Prop32
280
     0
102
RTVSPost2010PropOp32
 70
     1
102
RTVSPost2010Prop33
280
     0
102
RTVSPost2010PropOp33
 70
     1
102
RTVSPost2010Prop34
280
     0
102
RTVSPost2010PropOp34
 70
     1
102
RTVSPost2010Prop35
280
     0
102
RTVSPost2010PropOp35
 70
     1
102
RTVSPost2010Prop36
280
     0
102
RTVSPost2010PropOp36
 70
     1
102
RTVSPost2010Prop37
 90
       50
102
RTVSPost2010PropOp37
 70
     1
102
RTVSPost2010Prop38
140
0.0
102
RTVSPost2010PropOp38
 70
     1
102
RTVSPost2010Prop39
140
1.0
102
RTVSPost2010PropOp39
 70
     1
102
RTVSPost2010Prop40
 90
        0
102
RTVSPost2010PropOp40
 70
     1
102
RTVSPost2010Prop41ColorIndex
 90
       18
102
RTVSPost2010Prop41ColorRGB
 90
        0
102
RTVSPost2010PropOp41
 70
     1
102
RTVSPost2010Prop42
 90
       50
102
RTVSPost2010PropOp42
 70
     1
102
RTVSPost2010Prop43
 90
        3
102
RTVSPost2010PropOp43
 70
     1
102
RTVSPost2010Prop44ColorIndex
 90
        5
102
RTVSPost2010Prop44ColorRGB
 90
      255
102
RTVSPost2010PropOp44
 70
     1
102
RTVSPost2010Prop45
280
     0
102
RTVSPost2010PropOp45
 70
     1
102
RTVSPost2010Prop46
 90
       50
102
RTVSPost2010PropOp46
 70
     1
102
RTVSPost2010Prop47
 90
       50
102
RTVSPost2010PropOp47
 70
     1
102
RTVSPost2010Prop48
 90
       50
102
RTVSPost2010PropOp48
 70
     1
102
RTVSPost2010Prop49
280
     0
102
RTVSPost2010PropOp49
 70
     1
102
RTVSPost2010Prop50
 90
       50
102
RTVSPost2010PropOp50
 70
     1
102
RTVSPost2010Prop51ColorIndex
 90
      256
102
RTVSPost2010Prop51ColorRGB
 90
-16777216
102
RTVSPost2010PropOp51
 70
     0
102
RTVSPost2010Prop52
140
1.0
102
RTVSPost2010PropOp52
 70
     0
102
RTVSPost2010Prop53
 90
        2
102
RTVSPost2010PropOp53
 70
     1
102
RTVSPost2010Prop54
  1
strokes_ogs.tif
102
RTVSPost2010PropOp54
 70
     1
102
RTVSPost2010Prop55
280
     0
102
RTVSPost2010PropOp55
 70
     1
102
RTVSPost2010Prop56
140
1.0
102
RTVSPost2010PropOp56
 70
     1
102
RTVSPost2010Prop57
140
1.0
102
RTVSPost2010PropOp57
 70
     1
102
RTVSPropertyOp0
 70
     1
102
RTVSPropertyOp1
 70
     1
102
RTVSPropertyOp2
 70
     1
102
RTVSPropertyOp3
 70
     1
102
RTVSPropertyOp4
 70
     1
102
RTVSPropertyOp5
 70
     1
102
RTVSPropertyOp6
 70
     1
102
RTVSPropertyOp7
 70
     1
102
RTVSPropertyOp8
 70
     1
102
RTVSPropertyOp9
 70
     1
102
RTVSPropertyOp10
 70
     1
102
RTVSPropertyOp11
 70
     1
102
RTVSPropertyOp12
 70
     1
102
RTVSPropertyOp13
 70
     1
102
RTVSPropertyOp14
 70
     1
102
RTVSPropertyOp15
 70
     1
102
RTVSPropertyOp16
 70
     1
102
RTVSPropertyOp17
 70
     1
102
RTVSPropertyOp18
 70
     1
102
RTVSPropertyOp19
 70
     1
102
RTVSPropertyOp20
 70
     1
102
RTVSPropertyOp21
 70
     1
102
RTVSPropertyOp22
 70
     1
102
RTVSPropertyOp23
 70
     1
102
RTVSPropertyOp24
 70
     1
102
RTVSPropertyOp25
 70
     1
102
RTVSPropertyOp26
 70
     1
102
RTVSPropertyOp27
 70
     1
102
RTVSPropertyOp28
 70
     1
102
RTVSPropertyOp29
 70
     1
102
RTVSPropertyOp30
 70
     1
102
RTVSPropertyOp31
 70
     1
102
RTVSPropertyOp32
 70
     1
102
RTVSPropertyOp33
 70
     1
102
RTVSPropertyOp34
 70
     1
102
RTVSPropertyOp35
 70
     1
102
RTVSPropertyOp36
 70
     1
102
RTVSPropertyOp37
 70
     1
102
RTVSPropertyOp38
 70
     1
102
RTVSPropertyOp39
 70
     1
102
RTVSPropertyOp40
 70
     1
102
RTVSPropertyOp41
 70
     1
102
RTVSPropertyOp42
 70
     1
102
RTVSPropertyOp43
 70
     1
102
RTVSPropertyOp44
 70
     1
102
RTVSPropertyOp45
 70
     1
102
RTVSPropertyOp46
 70
     1
102
RTVSPropertyOp47
 70
     1
102
RTVSPropertyOp48
 70
     1
102
RTVSPropertyOp49
 70
     1
102
RTVSPropertyOp50
 70
     1
102
RTVSPropertyOp51
 70
     0
102
RTVSPropertyOp52
 70
     0
102
RTVSPropertyOp53
 70
     1
102
RTVSPropertyOp54
 70
     1
102
RTVSPropertyOp55
 70
     1
102
RTVSPropertyOp56
 70
     1
102
RTVSPropertyOp57
 70
     1
102
RTVSPropertyOp58
 70
     1
102
RTVSPropertyOp59
 70
     1
102
RTVSPropertyOp60
 70
     1
102
RTVSPropertyOp61
 70
     1
102
RTVSPropertyOp62
 70
     1
  0
XRECORD
  5
9C9
102
{ACAD_REACTORS
330
9C8
102
}
330
9C8
100
AcDbXrecord
280
     1
102
RTVSPost2010Prop28
280
     0
102
RTVSPost2010PropOp28
 70
     1
102
RTVSPost2010Prop29
280
     1
102
RTVSPost2010PropOp29
 70
     1
102
RTVSPost2010Prop30
280
     1
102
RTVSPost2010PropOp30
 70
     1
102
RTVSPost2010Prop31
280
     0
102
RTVSPost2010PropOp31
 70
     1
102
RTVSPost2010Prop32
280
     0
102
RTVSPost2010PropOp32
 70
     1
102
RTVSPost2010Prop33
280
     0
102
RTVSPost2010PropOp33
 70
     1
102
RTVSPost2010Prop34
280
     0
102
RTVSPost2010PropOp34
 70
     1
102
RTVSPost2010Prop35
280
     0
102
RTVSPost2010PropOp35
 70
     1
102
RTVSPost2010Prop36
280
     0
102
RTVSPost2010PropOp36
 70
     1
102
RTVSPost2010Prop37
 90
       50
102
RTVSPost2010PropOp37
 70
     1
102
RTVSPost2010Prop38
140
0.0
102
RTVSPost2010PropOp38
 70
     1
102
RTVSPost2010Prop39
140
1.0
102
RTVSPost2010PropOp39
 70
     1
102
RTVSPost2010Prop40
 90
        0
102
RTVSPost2010PropOp40
 70
     1
102
RTVSPost2010Prop41ColorIndex
 90
       18
102
RTVSPost2010Prop41ColorRGB
 90
        0
102
RTVSPost2010PropOp41
 70
     1
102
RTVSPost2010Prop42
 90
       50
102
RTVSPost2010PropOp42
 70
     1
102
RTVSPost2010Prop43
 90
        3
102
RTVSPost2010PropOp43
 70
     1
102
RTVSPost2010Prop44ColorIndex
 90
        5
102
RTVSPost2010Prop44ColorRGB
 90
      255
102
RTVSPost2010PropOp44
 70
     1
102
RTVSPost2010Prop45
280
     0
102
RTVSPost2010PropOp45
 70
     1
102
RTVSPost2010Prop46
 90
       50
102
RTVSPost2010PropOp46
 70
     1
102
RTVSPost2010Prop47
 90
       50
102
RTVSPost2010PropOp47
 70
     1
102
RTVSPost2010Prop48
 90
       50
102
RTVSPost2010PropOp48
 70
     1
102
RTVSPost2010Prop49
280
     0
102
RTVSPost2010PropOp49
 70
     1
102
RTVSPost2010Prop50
 90
       50
102
RTVSPost2010PropOp50
 70
     1
102
RTVSPost2010Prop51ColorIndex
 90
      256
102
RTVSPost2010Prop51ColorRGB
 90
-16777216
102
RTVSPost2010PropOp51
 70
     0
102
RTVSPost2010Prop52
140
1.0
102
RTVSPost2010PropOp52
 70
     0
102
RTVSPost2010Prop53
 90
        2
102
RTVSPost2010PropOp53
 70
     1
102
RTVSPost2010Prop54
  1
strokes_ogs.tif
102
RTVSPost2010PropOp54
 70
     1
102
RTVSPost2010Prop55
280
     0
102
RTVSPost2010PropOp55
 70
     1
102
RTVSPost2010Prop56
140
1.0
102
RTVSPost2010PropOp56
 70
     1
102
RTVSPost2010Prop57
140
1.0
102
RTVSPost2010PropOp57
 70
     1
102
RTVSPropertyOp0
 70
     1
102
RTVSPropertyOp1
 70
     1
102
RTVSPropertyOp2
 70
     1
102
RTVSPropertyOp3
 70
     1
102
RTVSPropertyOp4
 70
     1
102
RTVSPropertyOp5
 70
     1
102
RTVSPropertyOp6
 70
     1
102
RTVSPropertyOp7
 70
     1
102
RTVSPropertyOp8
 70
     1
102
RTVSPropertyOp9
 70
     1
102
RTVSPropertyOp10
 70
     1
102
RTVSPropertyOp11
 70
     1
102
RTVSPropertyOp12
 70
     1
102
RTVSPropertyOp13
 70
     1
102
RTVSPropertyOp14
 70
     1
102
RTVSPropertyOp15
 70
     1
102
RTVSPropertyOp16
 70
     1
102
RTVSPropertyOp17
 70
     1
102
RTVSPropertyOp18
 70
     1
102
RTVSPropertyOp19
 70
     1
102
RTVSPropertyOp20
 70
     1
102
RTVSPropertyOp21
 70
     1
102
RTVSPropertyOp22
 70
     1
102
RTVSPropertyOp23
 70
     1
102
RTVSPropertyOp24
 70
     1
102
RTVSPropertyOp25
 70
     1
102
RTVSPropertyOp26
 70
     1
102
RTVSPropertyOp27
 70
     1
102
RTVSPropertyOp28
 70
     1
102
RTVSPropertyOp29
 70
     1
102
RTVSPropertyOp30
 70
     1
102
RTVSPropertyOp31
 70
     1
102
RTVSPropertyOp32
 70
     1
102
RTVSPropertyOp33
 70
     1
102
RTVSPropertyOp34
 70
     1
102
RTVSPropertyOp35
 70
     1
102
RTVSPropertyOp36
 70
     1
102
RTVSPropertyOp37
 70
     1
102
RTVSPropertyOp38
 70
     1
102
RTVSPropertyOp39
 70
     1
102
RTVSPropertyOp40
 70
     1
102
RTVSPropertyOp41
 70
     1
102
RTVSPropertyOp42
 70
     1
102
RTVSPropertyOp43
 70
     1
102
RTVSPropertyOp44
 70
     1
102
RTVSPropertyOp45
 70
     1
102
RTVSPropertyOp46
 70
     1
102
RTVSPropertyOp47
 70
     1
102
RTVSPropertyOp48
 70
     1
102
RTVSPropertyOp49
 70
     1
102
RTVSPropertyOp50
 70
     1
102
RTVSPropertyOp51
 70
     0
102
RTVSPropertyOp52
 70
     0
102
RTVSPropertyOp53
 70
     1
102
RTVSPropertyOp54
 70
     1
102
RTVSPropertyOp55
 70
     1
102
RTVSPropertyOp56
 70
     1
102
RTVSPropertyOp57
 70
     1
102
RTVSPropertyOp58
 70
     1
102
RTVSPropertyOp59
 70
     1
102
RTVSPropertyOp60
 70
     1
102
RTVSPropertyOp61
 70
     1
102
RTVSPropertyOp62
 70
     1
  0
ENDSEC
  0
EOF
